Song name
# A B C D E F G H I J K L M N O P Q R S T U V W X Y Z

The Tallest Man On Earth - On Every Page tab

Hi there!

I liked this song so much, that i wanted to figure out the tabs.
So for I made it to the intro

Enjoy!

On Every Page  The Tallest Man on Earth
Tabbed by Blavblabla

Intro


e|------0h3-7-10-10s12-10-10-------------575-----------5-7--10--7-------|
B|-----0------------------10s8----------5----5-------5------------10-8---|
G|----0-----------------------7--------5------------5-----------------7--|
D|--2--------------------------7-----4-------------0-------------------7-|
A|-----------------------------------------------------------------------|
E|-----------------------------------------------------------------------|


e|-----7-5-----------------------7|------0h2h3-7--------5-7-5------|
B|----8---8-----------5-7------4--|-----0--------5-----5-----5-----|
G|---7------7---------5-------4---|-------------------5-------5----|
D|--5-----------------------------|---2--------------4-------------|
A|--------------------------------|--------------------------------|
E|--------------------7------7----|--------------------------------|

e|----5-7-10-7------------7-5-----------------7----------------|
B|---5---------10-8------8---8----5--7----4--------------------|
G|--5--------------7----7-----7---5------4---------------------|
D|-0-------------------5---------------------------------------|
A|-------------------------------------------------------------|
E|--------------------------------7-----7----------------------|
Tap to rate this tab
 
# A B C D E F G H I J K L M N O P Q R S T U V W X Y Z