Song name
# A B C D E F G H I J K L M N O P Q R S T U V W X Y Z

The Tallest Man On Earth - Thousand Ways tab

i've watched some tabs and tutorials and changed things I thought where wrong. This is 
the result, I might have added some notes ans rolls to make it sound fuller, so if you 
think there's too many notes, just play less, hope it helps!

tuning: CFCFCF
capo: he plays the album version with a capo on the 10th fret, but I recommend putting 
it on the 7th fret, he does this too when playing live sometimes.

Intro (first part) (x3)

F------------------------------------------------|
C-----------0-----------------------0------------|
F---------0-----------------------0--------------|
C-------0-----------0-----------0-----------0----|
F-0-----------0-----------0-----------0----------|
C------------------------------------------------|

F------------------------------------------------|
C-----------0-----------------------0------------|
F---------0-----------------------0--------------|
C-------0-----------0-----------0-----------0----|
F------------------------------------------------|
C-2-----------2-----------2-----------2----------|

Intro (second part) (x3)

F-------5--------4--------2--------0-------------|
C-------2-------0-------------------------0------|
F--------------0------------------------2--------|
C-------0-----------0-----------0-----------0----|
F-0-----------0-----------0----------------------|
C-------------------------------------4----------|

Intro (third part) (x1)

F-------5--------4--------2--------0-------------|
C-------2-------0-------------------------0------|
F--------------0------------------------0--------|
C-------0-----------0-----------0-----------0----|
F-0-----------0-----------0-----------0----------|
C------------------------------------------------|

Verse (x2)

F------------------------------------------------|
C-------4--------4--------5--------------0-------|
F-------2--------2--------4--------0-----------0-|
C-------0-----------0-----------0-----------0----|
F-0-----------0-----------0-----------0----------|
C------------------------------------------------|

F-------------------------------5--------4-------|
C----------------0--------------2-------0--------|
F-------0--------------0---------------0---------|
C-------2-----------2-----------0-----------0----|
F-5-----------5-----------0-----------0----------|
C------------------------------------------------|

F-2--------0-------------------------------------|
C-----------------0----------0--------0----------|
F---------------0--------------------------------|
C-------0-----------0-----------0-----------0----|
F-0-----------0----------------------------------|
C-------------------------5-----------4----------|

F------------------------------------------------|
C-0-----------0--------------------------0-------|
F-------------------------------0----------------|
C-------0-----------0-----------2-----------2----|
F-------------------------5-----------5----------|
C-2-----------0----------------------------------|

F------------------------------------------------|
C----------------0-----------------------0-------|
F-------0-----------------------0--------------0-|
C-------0-----------0-----------2-----------2----|
F-0-----------0-----------5-----------5----------|
C------------------------------------------------|

F-------------------------------5--------4-------|
C-0--------------0--------------2-------0--------|
F----------0-----------0---------------0---------|
C-------4-----------4-----------0-----------0----|
F-------------------------0-----------0----------|
C-0-----------0----------------------------------|

F-2--------0-------------|
C-----------------0------|
F---------------0--------|
C-------0-----------0----|
F-0-----------0----------|
C------------------------|

Chorus (x1)

F-------------------------0--------0-------------|
C----------------0--------0--------------0-------|
F-------0--------0--------------------------0----|
C-------4-----------4-----------4-----------4----|
F------------------------------------------------|
C-0-----------0-----------0-----------0----------|

F-------------------------0----------------------|
C----------------0-----------------0-------------|
F-------0--------------0-----------------0-------|
C-------4-----------4-----------4-----------4----|
F------------------------------------------------|
C-0-----------0-----------0-----------0----------|

F-------------------------0----------------------|
C----------------0-----------------0-------------|
F-------0--------------0-----------------0-------|
C-------2-----------2-----------2-----------2----|
F-5-----------5-----------5-----------5----------|
C------------------------------------------------|

F------------------------------------------------|
C----------------0-----------------0-------------|
F-------0-----------------0--------------0-------|
C-------4-----------4-----------4-----------0----|
F-5-----------5-----------5-----------5----------|
C------------------------------------------------|

F------------------------------------------------|
C----------------0-----------------------0-------|
F-------0-----------------------0----------------|
C-------0-----------0-----------2-----------2----|
F-------------------------5-----------5----------|
C-2-----------2----------------------------------|

F------------------------|
C----------------0-------|
F-------0----------------|
C-------4-----------4----|
F------------------------|
C-0-----------0----------|

Post-chorus (first part) (x3)

F-------5--------4--------2--------0-------------|
C-------2-------0-------------------------0------|
F--------------0------------------------2--------|
C-------0-----------0-----------0-----------0----|
F-0-----------0-----------0----------------------|
C-------------------------------------4----------|

Post-chorus (second part) (x1)

F-------5--------4--------2--------0-------------|
C-------2-------0-------------------------0------|
F--------------0------------------------0--------|
C-------0-----------0-----------0-----------0----|
F-0-----------0-----------0-----------0----------|
C------------------------------------------------|

Verse (x2)

Chorus (x1)

Post-chorus (first part) (x2)

Bridge (x1)

F------------------------------------------------|
C----------------0-----------------0-------------|
F-------0-----------------2--------------0-------|
C-------0-----------0-----------0-----------0----|
F------------------------------------------------|
C-2-----------2-----------0-----------0----------|

F-------5--------4--------2--------0-------------|
C-------2-------0-------------------------0------|
F--------------0------------------------0--------|
C-------0-----------0-----------0----------------|
F-0-----------0-----------0-----------0----------|
C-------------------------------------------0----|

F------------------------------------------------|
C----------------0-----------------0-------------|
F-------0-----------------2--------------0-------|
C-------0-----------0-----------0-----------0----|
F------------------------------------------------|
C-2-----------2-----------0-----------0----------|

F-------0--------0--------0----------------------|
C-------0--------0--------0--------------0-------|
F-------5--------4--------2--------0-------------|
C-------0-----------0-----------0-----------0----|
F-0-----------0-----------0-----------0----------|
C------------------------------------------------|

F------------------------------------------------|
C----------------0-----------------0-------------|
F-------0-----------------2--------------0-------|
C-------0-----------0-----------0-----------0----|
F------------------------------------------------|
C-2-----------2-----------0-----------0----------|

F-------5--------4--------2--------0-------------|
C-------2-------0-------------------------0------|
F--------------0------------------------0--------|
C-------0-----------0-----------0----------------|
F-0-----------0-----------0-----------0----------|
C-------------------------------------------0----|

F-------------------------0----------------------|
C----------------0-----------------0-------------|
F-------0--------------0-----------------0-------|
C-------4-----------4-----------4-----------4----|
F------------------------------------------------|
C-0-----------0-----------0-----------0----------|

F-------------------------0----------------------|
C----------------0-----------------0-------------|
F-------0--------------0-----------------0-------|
C-------4-----------4-----------4-----------4----|
F------------------------------------------------|
C-0-----------0-----------0-----------0----------|

Verse (x1)

Altered Verse + Ending (x1)

F------------------------------------------------|
C-------4--------4--------5--------------0-------|
F-------2--------2--------4--------0-----------0-|
C-------0-----------0-----------0-----------0----|
F-0-----------0-----------0-----------0----------|
C------------------------------------------------|

F-------------------------------5--------4-------|
C----------------0--------------2-------0--------|
F-------0--------------0---------------0---------|
C-------2-----------2-----------0-----------0----|
F-5-----------5-----------0-----------0----------|
C------------------------------------------------|

F-2--------0-------------------------------------|
C-----------------0----------0--------0----------|
F---------------0--------------------------------|
C-------0-----------0-----------0-----------0----|
F-0-----------0----------------------------------|
C-------------------------5-----------4----------|

F------------------------------------------------|
C-0-----------0--------------------------0-------|
F-------------------------------0--------------0-|
C-------0-----------0-----------2-----------2----|
F-------------------------5-----------5----------|
C-2-----------0----------------------------------|

F-0----------------------------------------------|
C----------0-----------------------------0-------|
F----------------0--------------0--------------0-|
C-------2-----------2-----------4-----------4----|
F-5-----------5----------------------------------|
C-------------------------0-----------0----------|

F-0----------------------------------------------|
C----------0-----------------------------0-------|
F----------------0-----------------0-------------|
C-------4-----------4-----------0-----------0----|
F------------------------------------------------|
C-0-----------0-----------5-----------4----------|

F------------------------------------------------|
C----------0-----------------------------0-------|
F-0--------------0--------------0----------------|
C-------0-----------0-----------0-----------0----|
F------------------------------------------------|
C-2-----------0-----------2-----------2----------|

F------------------------------------------------|
C----------0-------------------------------------|
F-2--------------0--------------------0----------|
C-------0-----------0-----------0-----------0----|
F------------------------------------------------|
C-0-----------0-----------5-----------4----------|

F------------------------------------------------|
C----------------------------------------0-------|
F-0--------------0--------------0----------------|
C-------0-----------0-----------0-----------0----|
F------------------------------------------------|
C-2-----------0-----------2-----------2----------|

F------------------------------------------------|
C----------0-----------------------------0-------|
F-2--------------0--------------0----------------|
C-------0-----------0-----------2-----------2----|
F-------------------------5-----------5----------|
C-0-----------0----------------------------------|

F-------------------------0----------------------|
C----------------0-----------------0-------------|
F-------0--------------------------------0-------|
C-------4-----------4-----------4-----------4----|
F-5-----------5-----------5-----------5----------|
C------------------------------------------------|

F------------------------------------------------|
C(0)----------------------0----------------------|
F----------4-----0-----------------4-----0-------|
C-------0-----------0-----------2-----------0----|
F-------------------------5-----------5----------|
C-2-----------2----------------------------------|

F------------------------------------------------|
C------------------------------------------------|
F---2-----0-----------------0--------------------|
C--0------------4-----------0--------------------|
F---------------------------0--------------------|
C-0----------------------------------------------|

That's it!




Note:

Instead of

F-------5--------4--------2--------0-------------|
C-------2-------0-------------------------0------|
F--------------0------------------------2--------|
C-------0-----------0-----------0-----------0----|
F-0-----------0-----------0----------------------|
C-------------------------------------4----------|

I think he might actually play

F-------5-----------4-----2--------0-------------|
C-----------------0-------------------------0----|
F---------------0---------------------------2----|
C-------0-----------0-----------0-----------0----|
F-0-----------0-----------0----------------------|
C-------------------------------------4----------|

just go with the one you think sounds best!
Tap to rate this tab
# A B C D E F G H I J K L M N O P Q R S T U V W X Y Z