Song name
# A B C D E F G H I J K L M N O P Q R S T U V W X Y Z

The Tallest Man On Earth - Leading Me Now tab

-------------------------------------------------------------------------------
                                          Leading Me Now - Tallest Man On Earth
-------------------------------------------------------------------------------
Tabbed by: Nic Williams

Tuning: Open G (DBGDGD) Capo 2

Rhythm:
Q  - quarter
E  - eighth note
E+ - dotted eighth
S  - sixteenth

This is a transcription of a great online tutorial by buckyswe
for those who want a written version. All credit to him.

There is definitely some variation in the interlude part, but
this is a good start. 

INTRO
  E SSE SSE SSE SS E SSE SSE SSE SS E SSE SSE SSE SS E SSE SSE SSE
d|----------------|----------------|----------------|----------------|
B|---0---0---0---0|---0---0---0---0|---0---0---0---0|---0---0---3X---|
G|--0---0---0---0-|--0---0---0---0-|--0---0---0---0-|--0---0---0-X---|
D|----------------|----------------|----------------|------------X---|
G|0---0---0---0---|0---0---0---0---|0---0---0---0---|0---0---0---X---|
D|----------------|----------------|----------------|----------------|

INTERLUDE
  Q   Q   E E E E  E E E E E E E E  E SSE E E SE+ E  E SSE E E E E E
d|----------------|----------------|----------------|----------------|
B|3---0---1p0---0-|--3-----1p0-----|---0----1--1--0-|---0----1p0-----|
G|------------2---|------0-----2p0-|--0---0---------|--0---0-----2p0-|
D|----4-------0---|----4-------0---|----0-----2-----|----0-------0---|
G|0-------0-----0-|0-------0-------|--------0--0--0-|0-------0-------|
D|----------------|----------------|2---------------|----------------|
  Q   Q   E E E E  E E E E E E E E  E SSE E E E E E  E SSE E E E E E
d|----------------|----------------|--------------0-|----------------|
B|3---0---1p0---0-|--3-----1p0-----|---0----5p0---0-|---0----1p0-----|
G|------------2---|------0-----2p0-|--0---0-----0---|--0---0-----2p0-|
D|----4-------0---|----4-------0---|----0-------0---|----0-------0---|
G|0-------0-----0-|0-------0-------|--------5-------|0-------0-------|
D|----------------|----------------|2---------------|----------------|

VERSE
  E SSE E E E E E  E SSE E E E E E  E SSE E E E E E  E SSE E E E E E
d|----------------|----------------|----------------|----------------|
B|---3------3-----|---0------0-----|---1------1-----|---0----1p0-----|
G|--0---0-------0-|--0---0-------0-|--0---0-------0-|--0---0-----2p0-|
D|----4-------0---|----0-------0---|----2-------0---|----0-----------|
G|0-------0-------|----------------|0-------0-------|0---------------|
D|----------------|2-------2-------|----------------|----------------|

d|----------------|----------------|----------------|----------------|
B|---3------3-----|---0------0-----|---1------1-----|---0------0-----|
G|--0---0-------0-|--0---0-------0-|--0---0-------0-|--0---0-------0-|
D|----4-------0---|----0-------0---|----2-------0---|----0-------0---|
G|0-------0-------|----------------|0-------0-------|0-------0-------|
D|----------------|2-------2-------|----------------|----------------|

d|----------------|----------------|----------------|----------------|
B|---0------0-----|---0------0-----|---1------1-----|---0------0-----|
G|--2---0-------2-|--2---0-------2-|--0---0-------0-|--2---0-------2-|
D|----0-------0---|----0-------0---|----2-------0---|----0-------0---|
G|----------------|----------------|0-------0-------|----------------|
D|0-------0-------|0-------0-------|----------------|0-------0-------|

BRIDGE
  E SSE E E E E E  E SSE E E E E E  E SSE E E E E E  E SSE E E E E E
d|----------------|----------------|----------------|----------------|
B|---0------0-----|---0------0-----|---0------0-----|---1------1-----|
G|--0---0-------0-|--2---0-------2-|--0---0-------0-|--0---0-------0-|
D|----2-------2---|----0-------0---|----4-------4---|----2-------0---|
G|5-------5-------|----------------|0-------0-------|0-------0-------|
D|----------------|0-------0-------|----------------|----------------|

d|----------------|----------------|----------------|----------------|
B|---1------1-----|---0------0-----|---0------0-----|---1------1-----|
G|--0---0-------0-|--2---0-------2-|--0---0-------0-|--0---0-------0-|
D|----2-------0---|----0-------0---|----4-------4---|----2-------0---|
G|0-------0-------|----------------|0-------0-------|0-------0-------|
D|----------------|0-------0-------|----------------|----------------|

d|----------------|----------------|----------------|----------------|
B|---0------0-----|---0------0-----|---0------0-----|---0------0-----|
G|--2---0-------2-|--0---0-------0-|--2---0-------2-|--0---0-------0-|
D|----0-------0---|----0-------0---|----0-------0---|----0-------0---|
G|----------------|----------------|----------------|----------------|
D|0-------0-------|0-------0-------|0-------0-------|0-------0-------|

************************************
ORDER
intro
interlude
verse
interlude
verse
interlude
bridge
verse
interlude
bridge
interlude x2
************************************
Tap to rate this tab
 
# A B C D E F G H I J K L M N O P Q R S T U V W X Y Z