Song name
# A B C D E F G H I J K L M N O P Q R S T U V W X Y Z

The Taxpayers - Cuyahoga Canal tab

Intro:

e|---------------------------------------------------------------|
B|---------------------------------------------------------------|
G|---4-4----------4-4--------4-4------4--------------------------|
D|---4-4----------4-4--------4-4------4--------------------------|
A|-2-2-2------0-2-2-2----0-2-2-2----0-2--------------------------|
E|----------2----------2----------2------------------------------|
                                                When you commit...

Verse:

e|---------------------------------------------------------------|
B|------------------------------------------------3-3--------3-3-|
G|---4-4----------4-4--------4-4--------4-4-------4-4--------4-4-|
D|---4-4----------4-4--------4-4--------4-4---0-2-2-2----0-2-2-2-|
A|-2-2-2------0-2-2-2----0-2-2-2----0-2-2-2-2----------2---------|
E|----------2----------2----------2------------------------------|

e|---------------------------------------------------------------|
B|---------------------------------------------------------------|
G|-------4-4--------4-4------------------------------------------|
D|-2-0---4-4--------4-4------2-22-223-4--------------------------|
A|-----2-2-2----0-2-2-2----0-2-22-223-4--------------------------|
E|------------2----------2---0-00-001-2--------------------------|
                                        ...There are guns inside.
e|---------------------------------------------------------------|
B|---------------------------------------------------------------|
G|---4-4----------4----------------------------------------------|
D|---4-4----------4----------------------------------------------|
A|-2-2-2------0-2-2----------------------------------------------|
E|----------2----------------------------------------------------|

Chorus:

E|---------|
D|-4-4-4-4-|
A|-2-2-2-2-|
G|-4-4-4-4-|
B|---------|
e|---------|

e|---------------------------------------------------------------|
B|---------------------------------------------------------------|
G|-4-4-2-2--------4-4-2-2--------4-4-2-2-------------------------|
D|-4-4-2-2-5--2---4-4-2-2-5--2---4-4-2-2-5--2--------------------|
A|-2-2-0-0-5--2---2-2-0-0-5--2---2-2-0-0-5--2--------------------|
E|---------3--0-----------3--0-----------3--0--------------------| x2

e|---------------------------------------------------------------|
B|---------------------------------------------------------------|
G|-4-4-2-2-------------------------------------------------------|
D|-4-4-2-2-5--2--------------------------------------------------|
A|-2-2-0-0-5--2--------------------------------------------------|
E|---------3--0--------------------------------------------------|

Order:

INTRO
VERSE
CHORUS
VERSE
CHORUS

Lyrics:

When you commit unforgivable crimes,
there is a house in which to hide.
At this house, there are guns inside.
If you begin to starve, I will feed you well.
If you cannot read, I will gladly help.
If you need some sleep, you can rest a spell.

But there's no swimming in the old canal, in those polluted waters where the best of men drown;
there's no swimming in the Cuyahoga Canal.

If you build a boat, you can sail up north.
You may find freedom past the Canadian border.
But your presence here is unwelcome, in the name of law and order.
Tap to rate this tab
 
# A B C D E F G H I J K L M N O P Q R S T U V W X Y Z