Song name
# A B C D E F G H I J K L M N O P Q R S T U V W X Y Z

The Taxpayers - Stealing Apples From The Man tab

Riff:

--------------------------------------------------------------------|
--------------------------------------------------------------------|
--------------------------------------------------------------------|
--------------------------------------------------------------------|
--------------0-3-5-555-5-5-5-5-5-7-777-7-7-7-7-5-5-3-333-3-3-3-5-5-|
--3-333-3-3-3-------------------------------------------------------|

-----------------------------------------------------3----------|
-----------------------------------------------------5----------|
-----------------------------------------------------5----------|
-----------------------------------------------------5----------|
-------------0-3-5-555-5-5-5-5-5-7-777-7-7-7-7-5-5-3-3----------|
-3-333-3-3-3----------------------------------------------------|

Verse:

   G     B7    Em    C
---3-----7-----7-----3---|
---3-----7-----8-----5---|
---4-----8-----9-----5---| Bend the C chord
---5-----7-----9-----5---|
---5-----9-----7-----3---|
---3-----7---------------|


No guitar in the chorus


Other verse:

   Am    Gm    C     D
---5-----3-----3-----5---|
---5-----3-----5-----7---|
---5-----3-----5-----7---| The G minor is played quickly in the transition
---7-----5-----5-----7---| from A minor to C
---7-----5-----3-----5---|
---5-----3---------------|



End the song on G
Tap to rate this tab
# A B C D E F G H I J K L M N O P Q R S T U V W X Y Z