Song name
# A B C D E F G H I J K L M N O P Q R S T U V W X Y Z

The Teen Idles - Getting In My Way tab

Verse		    Chorus
E|------------------------|--------------------------------------------------|
B|------------------(x )--|-----------------------(x )-----------------------|
G|-----8-8-8--------------|--------------8-8-8-8-----------------------------|
D|--3--8-8-8--6--8--------|--3--6-6-6-6--8-8-8-8-----------------------------|
A|--3--6-6-6--6--8--------|--3--6-6-6-6--6-6-6-6-----------------------------|
E|--1---------4--6--------|--1--4-4-4-4--------------------------------------|

   Repeat Verse/Chorus

   Break
E|----------------------------------------|----------------------------------|
B|----------------------------------(x )--|----------------------------------|
G|--8--------6----------------------------|----------------------------------|
D|--8-8-8-8--6-6-6-6--3-3-3-3-3-3---------|--3-------------------------------|
A|--6-8-8-8--4-6-6-6--3-3-3-3-3-3---------|--3-------------------------------|
E|----6-6-6----4-4-4--1-1-1-1-1-1---------|--1-------------------------------|

   Repeat Verse/Chorus 
 
   End with F ...

Tap to rate this tab
# A B C D E F G H I J K L M N O P Q R S T U V W X Y Z