Song name
# A B C D E F G H I J K L M N O P Q R S T U V W X Y Z

The Teen Idles - Trans Am tab

   Intro/Chorus				Bridge
E|------------------------------------|--------------------------------------|
B|------------------------------(x )--|--------------------------------(x2)--|
G|----8-------8-------8----6----------|--8-8-8--10-10-10---------------------|
D|--8-8-8-8-8-8-8-8-8-8-8--6-6--------|--8-8-8--10-10-10--6-6--8-8-8---------|
A|--8-6-8-8-8-6-8-8-8-6-8--4-6--------|--6-6-6--8--8--8---6-6--8-8-8---------|
E|--6---6-6-6---6-6-6---6----4--------|-------------------4-4--6-6-6---------|

E|-------------------------------------------------------------|-------------|
B|-------------------------------------------------------------|-------------|
G|--8-8-8--10-10-10--8-8--10-10---8-8-8--10-10-10--------------|-------------|
D|--8-8-8--10-10-10--6-6--8--8----8-8-8--10-10-10--6-6--8-8-8--|--8-6-8-6-8--|
A|--6-6-6--8--8--8----------------6-6-6--8--8--8---6-6--8-8-8--|--8-6-8-6-8--|
E|-------------------------------------------------4-4--6-6-6--|--6-4-6-4-6--|

   Verse
E|--------------------------|------------------------|-----------------------|
B|--------------------(x )--|------------------------|--(x )-----------------|
G|-----------8-8-8-8--------|--6-6-6-6--10-10-10-10--|-----------------------|
D|--8-8-8-8--8-8-8-8--------|--6-6-6-6--8--8--8--8---|-----------------------|
A|--8-8-8-8--6-6-6-6--------|--4-4-4-4---------------|-----------------------|
E|--6-6-6-6-----------------|------------------------|-----------------------|

   Repeat Chorus/Bridge/Verse ...

   Repeat Chorus/Outro

Tap to rate this tab
# A B C D E F G H I J K L M N O P Q R S T U V W X Y Z