Song name
# A B C D E F G H I J K L M N O P Q R S T U V W X Y Z

The Teen Idles - Sneakers tab

   Intro	        Verse 					     Chorus
E|--------------------|--------------------------------------------|---------|
B|--------------(x2)--|--------------------------------------(x )--|---------|
G|-----6-----8--------|-----------6-6-6-6-----------8-8-8-8--------|---------|
D|--8--6--6--8--------|--8-8-8-8--6-6-6-6--6-6-6-6--8-8-8-8--------|--8-8-8--|
A|--8--4--6--6--------|--8-8-8-8--4-4-4-4--6-6-6-6--6-6-6-6--------|--8-8-8--|
E|--6-----4-----------|--6-6-6-6-----------4-4-4-4-----------------|--6-6-6--|

					  Solo
E|--------------------|--------|        |------------------------------------|
B|--------------------|--(x )--| Repeat |------------------------------------|
G|--6-8----------6----|--------| Verse/ |--10-10-10--8(10)-6--8(10)-6--8(10)-|
D|--6-8---6-6-6--6-8--|--------| Chorus |------------------------------------|
A|--4-6---6-6-6--4-8--|--------| Intro  |------------------------------------|
E|--------4-4-4----6--|--------|        |------------------------------------|

E|---------------------------------------------------------------------------|
B|---------------------------------------------------------------------------|
G|--10-10-10-10--8(10)-6-8-8-6-------10-10-10-10--8(10)-6--8(10)-6--8(10)----|
D|-----------------------------8-6-------------------------------------------|
A|---------------------------------------------------------------------------|
E|---------------------------------------------------------------------------|

E|---------------------------------------------------------------------------|
B|---------------------------------------------------------------------------|
G|--10-10-10-10--8(10)-8(10)-8(10)-8(10)-8(10)-6-----------------------------|
D|---------------------------------------------------------------------------|
A|---------------------------------------------------------------------------|
E|---------------------------------------------------------------------------|

   Repeat Verse/Chorus

Tap to rate this tab
# A B C D E F G H I J K L M N O P Q R S T U V W X Y Z