Song name
# A B C D E F G H I J K L M N O P Q R S T U V W X Y Z

The Teen Idles - Teen Idles tab

   Intro			 Verse
E|-----------------------------|-----------------------------|---------------|
B|-----------------------(x4)--|-----------------------(x3)--|---------------|
G|--6-6------------------------|--6-6------------------------|---------------| Repeat
D|--6-6--6-6--8-8-8-8-8--------|--6-6--6-6--8-8-8-8-8--------|--3-3-3-3-3-3--| Verse
A|--4-4--6-6--8-8-8-8-8--------|--4-4--6-6--8-8-8-8-8--------|--3-3-3-3-3-3--|
E|-------4-4--6-6-6-6-6--------|-------4-4--6-6-6-6-6--------|--1-1-1-1-1-1--|

   Chorus
E|---------------------------------------------------------------------------|
B|---------------------------------------------------------------------(x )--|
G|--6-6-6-6-----------11-11-11-11--6-6-6-6-----------------------------------|
D|--6-6-6-6--6-6-6-6--11-11-11-11--6-6-6-6-----------------------------------|
A|--4-4-4-4--6-6-6-6--9--9--9--9---4-4-4-4-----------------------------------|
E|-----------4-4-4-4---------------------------------------------------------|

   Repeat Verse/Chorus

Tap to rate this tab
# A B C D E F G H I J K L M N O P Q R S T U V W X Y Z