Song name
# A B C D E F G H I J K L M N O P Q R S T U V W X Y Z

The Teen Idles - Teen Idles tab

-------------------------------------------------------------------------------
Teen Idles - Teen Idles
Minor Disturbance

Teen Idles Official page on Dischord Records: http://www.dischord.com/band/teenidles
-------------------------------------------------------------------------------
Tabbed by: axeslash
Email: holmzito@yahoo.com

Tuning: Guitar 1 - EADGBE

e|-------------------------------------------------------------|
B|-------------------------------------------------------------|
G|-------------------------------------------------------------|
D|-3-3-3-3-------------------------3-3-3-3---------------------|
A|-1-1-1-1-3-3-3-3-5-5-5-5-5-5-5-5-1-1-1-1-3-3-3-3-5--5--5--5--|
E|---------1-1-1-1-3-3-3-3-3-3-3-3---------1-1-1-1-3--3--3--3--|

e|---------------------------------|     e|------------------|
B|---------------------------------|     B|------------------|
G|---------------------------------|     G|------------------|
D|-3-3-3-3-------------------------|     D|6/7-7-7-7-7-7-7-7-|
A|-1-1-1-1-3-3-3-3-5-5-5-5-5-5-5-5-|     A|4/5-5-5-5-5-5-5-5-|
E|---------1-1-1-1-3-3-3-3-3-3-3-3-| x5  E|------------------| x2

e|---------------------------------|     e|------------------|
B|---------------------------------|     B|------------------|
G|---------------------------------|     G|------------------|
D|-3-3-3-3-------------------------|     D|6/7-7-7-7-7-7-7-7-|
A|-1-1-1-1-3-3-3-3-5-5-5-5-5-5-5-5-|     A|4/5-5-5-5-5-5-5-5-|
E|---------1-1-1-1-3-3-3-3-3-3-3-3-| x3  E|------------------| x2

e|--------------------------------------------|
B|--------------------------------------------|
G|--------------------------------------------|
D|-3-3-3--3--------------8-8-8--8-------------|
A|-1-1-1--1--3-3-3-3-3-3-6-6-6--6-8-8-8-8-8-8-|
E|-----------1-1-1-1-1-1----------6-6-6-6-6-6-| x2

e|---------------------------------|     e|------------------|
B|---------------------------------|     B|------------------|
G|---------------------------------|     G|------------------|
D|-3-3-3-3-------------------------|     D|6/7-7-7-7-7-7-7-7-|
A|-1-1-1-1-3-3-3-3-5-5-5-5-5-5-5-5-|     A|4/5-5-5-5-5-5-5-5-|
E|---------1-1-1-1-3-3-3-3-3-3-3-3-| x3  E|------------------| x2

e|---------------------------------|     e|------------------|
B|---------------------------------|     B|------------------|
G|---------------------------------|     G|------------------|
D|-3-3-3-3-------------------------|     D|6/7-7-7-7-7-7-7-7-|
A|-1-1-1-1-3-3-3-3-5-5-5-5-5-5-5-5-|     A|4/5-5-5-5-5-5-5-5-|
E|---------1-1-1-1-3-3-3-3-3-3-3-3-| x3  E|------------------| x2

e|--------------------------------------------|
B|--------------------------------------------|
G|--------------------------------------------|
D|-3-3-3--3--------------8-8-8--8-------------|
A|-1-1-1--1--3-3-3-3-3-3-6-6-6--6-8-8-8-8-8-8-|
E|-----------1-1-1-1-1-1----------6-6-6-6-6-6-| x2

| /  slide up
| \  slide down
| h  hammer-on
| p  pull-off
| ~  vibrato
| +  harmonic
| x  Mute note
===============================================================================
Tap to rate this tab
# A B C D E F G H I J K L M N O P Q R S T U V W X Y Z