Song name
# A B C D E F G H I J K L M N O P Q R S T U V W X Y Z

The Tellers - Second Category tab

The Tellers - Second Category Solos


Aron Audenaert tabbed already some of the solos (see comments on "Second Category (vers 
Chods), I added two little solo and added one tone to his solo. hope it's alright


1st guitar --> see tab "Second Category (vers 2) Chords", capo 8th fret

2nd guitar no capo!


first just 1st guitar (chords), 2ng guitar jumps in at "... some's got pain..."

|---------------------------------------|
|---------------------------------------|
|------------------------8~-------------|
|--10--10--10--10-----------------------|
|---------------------------------------|
|---------------------------------------|

 Some's got pain in the eyes, some are happy


|---------------------------------------------------------------------|
|-------------9-------------------------------------------------------|
|--8---10----------10---8---------------------------------------------|
|----------------------------10---------------------------------------|
|------------------------------------11~------------------------------|
|---------------------------------------------------------------------|

 Don't try to lie cause I know I'm right, you're in the first category


|------------------------------|
|------------------------------|
|--10-10--10-8-8--8------------|
|-------------------10-10------|
|-------------------------11~--|
|------------------------------|      (2x)


than follows the verse


after a while this little solo is played:

|-------8---------------------8--------------|
|---------9~--------------------9~-----------|
|--8/10------10-8--------8/10------10-8-10~--|
|-----------------10~------------------------|
|--------------------------------------------|
|--------------------------------------------|


then the 1st guitar strums E E Am Am C   C C E E Am
the 2nd guitar plays:

|---------------------------------|
|-------------9~----9-8-----------|
|--------8-10-----------10-9-10~--|
|-----10--------------------------|
|--11-----------------------------|
|---------------------------------|


listen to the song to figure out when to play which solo

have fun!
Tap to rate this tab
# A B C D E F G H I J K L M N O P Q R S T U V W X Y Z