Guitaretab - guitar tabs
Song name
# A B C D E F G H I J K L M N O P Q R S T U V W X Y Z

The Temper Trap - Sweet Disposition tab

-------------------------------------------------------------------------------
			     Sweet Disposition – The Temper Trap
-------------------------------------------------------------------------------
Tabbed by: Steve Harris
Email: snharris3@hotmail.com

Yo, yes this is my first tab. Yes I know you see a lot of “first tabs” but no sh#t it 
That’s why it’s probably no overly good but I tried and I love this song. Beautiful. Enjoy 
send me feedback if you wish.

NB I can’t tab the high notes etc as I’m not that good!

Tuning: Standard

Intro
e|-------------------------------------------------------------------------|
B|-------------------------------------------------------------------------|
G|-------------------------------------------------------------------------|
D|--4-5-7-x-8--------------------------------------------------------------|
A|5------------------------------------------------------------------------|
E|-------------------------------------------------------------------------|

Verse 1
e|-------------------------------------------------------------------------|
B|-------------------------------------------------------------------------|
G|-------------------------------------------------------------------------|
D|--4-5-7-x-4---------------------—--X4------------------------------------|
A|5----------------6-7-9-x-4-----------------------------------------------|
E|---------------7---------------------------------------------------------|

e|-------------------------------------------------------------------------|
B|-------------------------------------------------------------------------|
G|-------------------------------------------------------------------------|
D|7-x8----------------X2---------------------------------------------------|
A|5-----9-x4-5-x4----------------------------------------------------------|
E|------7----3-------------------------------------------------------------|

e|-------------------------------------------------------------------------|
B|-------------------------------------------------------------------------|
G|-------------------------------------------------------------------------|
D|--4-5-7-x4---------------------------------X2----------------------------|
A|5--------------6-7-9-x2------6-7-9-x2------------------------------------|
E|-------------7-------------3---------------------------------------------|

Pre-Chorus
e|-------------------------------------------------------------------------|
B|-------------------------------------------------------------------------|
G|-------------------------------------------------------------------------|
D|7-x8---------------------------------------------------------------------|
A|5------9-x4---5-x4----X2-------------------------------------------------|
E|-------7------3----------------------------------------------------------|
[ Tab from: http://www.guitaretab.com/t/the-temper-trap/189986.html ]
Chorus
e|--------------------------------------------------------------------------|
B|--------------------------------------------------------------------------|
G|7-------------------------------------------------------------------------|
D|7-x4--9-------5------2----------------------------------------------------|
A|5-----9-x4----5-x4---2-x4-----------X4------------------------------------|
E|------7-------3------0----------------------------------------------------|


Interlude
e|-------------------------------------------------------------------------|
B|-------------------------------------------------------------------------|
G|-------------------------------------------------------------------------|
D|7-----x16----------------------------------------------------------------|
A|5------------------------------------------------------------------------|
E|-------------------------------------------------------------------------|

Verse 2
e|-------------------------------------------------------------------------|
B|-------------------------------------------------------------------------|
G|-------------------------------------------------------------------------|
D|7-5-4----x4--------------------------------------------------------------|
A|------5--------6-7-9—x2-----6-7-9—x2-----------X4------------------------|
E|-------------7------------3----------------------------------------------|

e|-------------------------------------------------------------------------|
B|-------------------------------------------------------------------------|
G|-------------------------------------------------------------------------|
D|7—x30----11---x2---------------------------------------------------------|
A|5--------9---------------------------------------------------------------|
E|-------------------------------------------------------------------------|

Chorus
e|--------------------------------------------------------------------------|
B|--------------------------------------------------------------------------|
G|7-------------------------------------------------------------------------|
D|7-x4--9-------5------2----------------------------------------------------|
A|5-----9-x4----5-x4---2-x4-----------X8------------------------------------|
E|------7-------3------0----------------------------------------------------|


e|-------------------------------------------------------------------------|
B|-------------------------------------------------------------------------|
G|7------------------------------------------------------------------------|
D|7-------ends on this note------------------------------------------------|
A|5------------------------------------------------------------------------|
E|-------------------------------------------------------------------------|

http://www.thetempertrap.net/
snharris3@hotmail.com

| /  slide up
| \  slide down
| h  hammer-on
| p  pull-off
| ~  vibrato
| +  harmonic
| x  Mute note
===============================================================================
Related for Sweet Disposition tab
Advertisement will be closed in 10 seconds