Song name
# A B C D E F G H I J K L M N O P Q R S T U V W X Y Z

The Temper Trap - Fader tab

_____________________________________________________________
The Temper Trap
Conditions
Fader
_____________________________________________________________

INTRO:
e|-----------0---------------------------------|
B|--5--7--8--5---------------------------------|
G|--6--7--9--6---------------------------------|
D|--7--9--9------------------------------------|
A|---------------------------------------------|
E|---------------------------------------------|


VERSE:
e|-----------0---------------------------------|
B|--5--7--8--5---5-7-8-7-----------------------|
G|--6--7--9--6---6-7-9-7-----------------------|
D|--7--9--9------7-9-9-7-----------------------| x2
A|---------------------------------------------|
E|---------------------------------------------|


CHORUS:
e|---------------------------------------------|
B|---------------------------------------------|
G|---------------------------------------------|
D|----77777777--9999999--55555555555555--------| x4
A|----77777777--9999999--55555555555555--------|
E|----55555555--7777777--33333333333333--------|

2nd guitar:
e|----------------------    |     -------------|
B|----------------------    |     -------------|
G|--9s11-9999-----------    |then -999999------|
D|--x-x--xxxx----------- x3 |     -xxxxxx------| x4
A|--7s9--7777-----------    |     -777777------|
E|----------------------    |     -------------|


SOLO:
e|---------------------------------------------|
B|---------------------------------------------|
G|-9b11-11-11-11-11-11-11-11-7h9p7------9-7----|
D|---------------------------------9--7--------| x2
A|---------------------------------------------|
E|---------------------------------------------|
Tap to rate this tab
 
# A B C D E F G H I J K L M N O P Q R S T U V W X Y Z