Song name
# A B C D E F G H I J K L M N O P Q R S T U V W X Y Z

The Temper Trap - Sweet Disposition tab

-------------------------------------------------------------------------------
			 Sweet Disposition - Temper Trap
-------------------------------------------------------------------------------
Tabbed by:James Jackson
Email:ironarethebest@hotmail.com

Tuning:standard

Intro:palm muted

e|-------------------------------------------------------------------------------------|
B|-------------------------------------------------------------------------------------|
G|-------------------------------------------------------------------------------------| 
D|-------------------------------------------------------------------------------------|
A|----9-10-12----9-10-12----9-10-12----9-10-12----9-10-12----9-10-12----9-10-12--------|
E|-10---------10---------10---------10---------10---------10---------10----------------|

Main Riff

e|-------------------------------------------------------------------------------------|
B|-------------------------------------------------------------------------------------|
G|-------------------------------------------------------------------------------------|
D|-------------------------------------------------------------------------------------|
A|----9-10-12----9-10-12----9-10-12----9-10-12---------9---------9---------9---------9-|
E|-10---------10---------10---------10---------7-10-12---7-10-12---7-10-12---7-10-12---|

Pre-Chorus

e|-----------------------------------------------------------------------|
B|-----------------------------------------------------------------------|
G|-11-11-11-11-11-11-11-11-11--------------------------------------------|
D|-12-12-12-12-12-12-12-12-12--------------------------------------------|
A|-----------------------------------------------------------------------|
E|-----------------------------------------------------------------------|

Chorus:tremolo pick

e|-----------------------------------------------------------------------|
B|---11-11-11-11-11-11-11-11-9-9-9-9-9-9-9-9-----------------------------|
G|-------------------------------------------12-12-12-12-12-12-12-12-12--|
D|-----------------------------------------------------------------------|
A|-----------------------------------------------------------------------|
E|-----------------------------------------------------------------------|

Fill:played every so often throughout the song

e|-----------------------------------------------------------------------|
B|-----12+---------------------------------------------------------------|
G|--12+-------7+---------------------------------------------------------|
D|----------7+-----------------------------------------------------------|
A|-----------------------------------------------------------------------|
E|-----------------------------------------------------------------------|



| /  slide up
| \  slide down
| h  hammer-on
| p  pull-off
| ~  vibrato
| +  harmonic
| x  Mute note
===============================================================================
Tap to rate this tab
# A B C D E F G H I J K L M N O P Q R S T U V W X Y Z