Song name
# A B C D E F G H I J K L M N O P Q R S T U V W X Y Z

The Temper Trap - Love Lost tab

Love Lost - The Temper Trap (Conditions, 2009)


There's no guitar during the verse, the guitarist plays the organ/keyboard. The chords are:

Bm | G | D | D |


Then Dougie joins in with the guitar:

e--7-7-7-7-7-7-7-7-|-------------------------|
b--7-7-7-7-7-7-7-7-|-12-12-12-12-12-12-12-12-|
g--7-7-7-7-7-7-7-7-|-12-12-12-12-12-12-12-12-|
d--9-9-9-9-9-9-9-9-|-12-12-12-12-12-12-12-12-|
a--9-9-9-9-9-9-9-9-|-10-10-10-10-10-10-10-10-|
E--7-7-7-7-7-7-7-7-|-------------------------|

e-10-10-10-10-10-10-10-10-|-12-12-12-12-12-12-12-12-|
b-10-10-10-10-10-10-10-10-|-10-10-10-10-10-10-10-10-|
g-11-11-11-11-11-11-11-11-|-11-11-11-11-11-11-11-11-|
d-12-12-12-12-12-12-12-12-|-12-12-12-12-12-12-12-12-|
a-X--X--X--X--X--X--X--X--|-X--X--X--X--X--X--X--X--|
E-10-10-10-10-10-10-10-10-|-10-10-10-10-10-10-10-10-|    

* Fret the low e with your thumb in the Hendrix style.
  N.B. This is how i play it, but you can add the note on the A 
  or omit the E and A strings altogether if you want.

the second time, Dougie adds a high E onto the G chord

e--7-7-7-7-7-7-7-7-|-12-12-12-12-12-12-12-12-|
b--7-7-7-7-7-7-7-7-|-12-12-12-12-12-12-12-12-|
g--7-7-7-7-7-7-7-7-|-12-12-12-12-12-12-12-12-|
d--9-9-9-9-9-9-9-9-|-12-12-12-12-12-12-12-12-|
a--9-9-9-9-9-9-9-9-|-10-10-10-10-10-10-10-10-|
E--7-7-7-7-7-7-7-7-|-------------------------|

e-10-10-10-10-10-10-10-10-|-12-12-12-12-12-12-12-12-|
b-10-10-10-10-10-10-10-10-|-10-10-10-10-10-10-10-10-|
g-11-11-11-11-11-11-11-11-|-11-11-11-11-11-11-11-11-|
d-12-12-12-12-12-12-12-12-|-12-12-12-12-12-12-12-12-|
a-X--X--X--X--X--X--X--X--|-X--X--X--X--X--X--X--X--|
E-10-10-10-10-10-10-10-10-|-10-10-10-10-10-10-10-10-|    


The the little fill thing Dougie adds during the transition is like this: (let the notes ring out)

e----7-------|----3-------|----2-*--|--2h3--2h3----2---|  
b------7-----|------3-----|---3-----|--3----3------3---|
g--------7---|--------4---|--2------|--------------2---|
d--9-------9-|--5-------5-|-0-------|--------------0---|
a------------|------------|---------|------------------|
E-(7)--------|-(3)--------|---------|------------------|  


* with the D in the 3rd bar, strum it, letting each note ring out, rasgueado i think is the term.
Tap to rate this tab
# A B C D E F G H I J K L M N O P Q R S T U V W X Y Z