Song name
# A B C D E F G H I J K L M N O P Q R S T U V W X Y Z

The Temper Trap - Soldier On tab

I noticed nobody had tabbed the solo so I tried to ear it out and this is what I came up 
If you guys see anything wrong feel free to email me with corrections but take it easy 
me because this is my first tab.
ENJOY!

e|-----------------------------------------------------------------------------------|
B|-----------------------------------------------------------------------------------|
G|-----------------------------------------------------------------------------------|
D|------------16------17---16------16--------------16------17--16-----16-------------|
A|--17---17------17------------17-------17---17------17-----------17-----------------|
E|-----------------------------------------------------------------------------------|

e|------------------------------------------------------------------------------------|
B|------------------------------------------------------------------------------------|
G|------------------------------------------------------------------------------------|
D|------------16------17---16------16--------------16------17--19--17--16-------------|
A|--17---17------17------------17-------17---17------17-------------------------------|
E|------------------------------------------------------------------------------------|

e|-----------------------------------------------------------------------------------|
B|-----------------------------------------------------------------------------------|
G|-----------------------------------------------------------------------------------|
D|------------16------17---16------16--------------16------17--16-----16-------------|
A|--17---17------17------------17-------17---17------17-----------17-----------------|
E|-----------------------------------------------------------------------------------|

e|------------------------------------------------------------------------------------|
B|------------------------------------------------------------------------------------|
G|------------------------------------------------------------------------------------|
D|------------16------17---16------16--------------16------17--19--17--16-------------|
A|--17---17------17------------17-------17---17------17-------------------------------|
E|------------------------------------------------------------------------------------|

e|------------------------------------------------------------------------------------|
B|------------------------------------------------------------------------------------|
G|------------------------------------------------------------------------------------|
D|--17--16--17--16--17--16--17--19--17--16--17--16--17--16--17--19--------------------|
A|------------------------------------------------------------------------------------|
E|------------------------------------------------------------------------------------|

e|-----------------------------------------------------------------------------------|
B|-----------------------------------------------------------------------------------|
G|----------------------------------------16--16--16--16--16--16--16--16-------------|
D|--19--19--19--19--19--19--19--19---------------------------------------------------|
A|-----------------------------------------------------------------------------------|
E|-----------------------------------------------------------------------------------|

e|---------------------------------------------------------------------------------|
B|---------------------------------------------------------------------------------|
G|--18--16--18--16--18--16--18--16--19--16--19--16--19--16--19--16-----------------|
D|---------------------------------------------------------------------------------|
A|---------------------------------------------------------------------------------|
E|---------------------------------------------------------------------------------|

e|---------------------------------------------------------------------------------|
B|--17--17--17--17--17--17--17--17--19--19--19--19--19--17-------------------------|
G|---------------------------------------------------------------------19--16------|
D|---------------------------------------------------------------------------------|
A|---------------------------------------------------------------------------------|
E|---------------------------------------------------------------------------------|

e|---------------------------------------------------------------------------------|
B|---------------------------------------------------------------------------------|
G|---------------------------------------------------------------------------------|
D|-----------12----------12-----12------------16----------16-----16----------------|
A|--14--14-----14--14------14------17--17------17--17-----17-----------------------|
E|---------------------------------------------------------------------------------|

e|---------------------------------------------------------------------------------|
B|---------------------------------------------------------------------------------|
G|---------------------------------------------------------------------------------|
D|----------7---------7------7-------------9------------9-------9------------------|
A|--9--9------9--9------9-------10--10------10--10------10-------------------------|
E|---------------------------------------------------------------------------------|
Tap to rate this tab
# A B C D E F G H I J K L M N O P Q R S T U V W X Y Z