Song name
# A B C D E F G H I J K L M N O P Q R S T U V W X Y Z

The Temper Trap - Fader tab

This song is really easy to play and i would suggest it as a cover for a band that is 
starting out. it requires a singer, two guitars, a bass guitar, drums and a keyboard 
it is not neccesary if you don't have one!)

INTRO
The song starts with a keyboard intro. This is it tabbed for guitar:

E-0-------2-------|-3-------3-------|
B-2-------3-------|-3-------5-------|
G-2-------2-------|-4-------4-------|
D-----------------|-----------------|
A-----------------|-----------------|
E-----------------|-----------------|

VERSE
The verse is then soley the bass, drums, vocals and the keyboard. after this it is the chorus

CHORUS

Guitar 1 (distorted)
E-5-5-5-5-5-5-5-5-|-7-7-7-7-7-7-7-7-|-3-3-3-3-3-3-3-3-|-3-3-3-3-3-3-3-3-|
B-5-5-5-5-5-5-5-5-|-7-7-7-7-7-7-7-7-|-3-3-3-3-3-3-3-3-|-3-3-3-3-3-3-3-3-|
G-6-6-6-6-6-6-6-6-|-7-7-7-7-7-7-7-7-|-4-4-4-4-4-4-4-4-|-4-4-4-4-4-4-4-4-|
D-7-7-7-7-7-7-7-7-|-9-9-9-9-9-9-9-9-|-5-5-5-5-5-5-5-5-|-5-5-5-5-5-5-5-5-| x2
A-7-7-7-7-7-7-7-7-|-9-9-9-9-9-9-9-9-|-5-5-5-5-5-5-5-5-|-5-5-5-5-5-5-5-5-|
E-5-5-5-5-5-5-5-5-|-7-7-7-7-7-7-7-7-|-3-3-3-3-3-3-3-3-|-3-3-3-3-3-3-3-3-|

Guitar 2 (clean)
E-5---5-5-----5-5-|-7---7-7-----7-7-|-3---3-3-----3-3-|-3---3-3-----3-3-|
B-5---5-5-----5-5-|-7---7-7-----7-7-|-3---3-3-----3-3-|-3---3-3-----3-3-|
G-6---6-6-----6-6-|-7---7-7-----7-7-|-4---4-4-----4-4-|-4---4-4-----4-4-|
D-7---7-7-----7-7-|-9---9-9-----9-9-|-5---5-5-----5-5-|-5---5-5-----5-5-| x2
A-7---7-7-----7-7-|-9---9-9-----9-9-|-5---5-5-----5-5-|-5---5-5-----5-5-|
E-5---5-5-----5-5-|-7---7-7-----7-7-|-3---3-3-----3-3-|-3---3-3-----3-3-|

then:

Guitar 1
E---------------------|---------------------|--------------------|
B---------------------|---------------------|--------------------|
G-11-11-11-9-9-9-9-11-|-11-11-11-9-9-9-9-11-|-11-11-11-9-9-9-9-9-|
D---------------------|---------------------|--------------------|
A-9--9--9--7-7-7-7-9--|-9--9--9--7-7-7-7-9--|-9--9--9--7-7-7-7-7-|
E---------------------|---------------------|--------------------|

E-----------------|
B-----------------|
G-9-9-9-9-7-7-7-7-|
D-----------------| x2
A-7-7-7-7-5-5-5-5-|
E-----------------|

Guitar 2
E-5---5-5-----5-5-|-7---7-7-----7-7-|-3---3-3-----3-3-|-3---3-3-----3-3-|
B-5---5-5-----5-5-|-7---7-7-----7-7-|-3---3-3-----3-3-|-3---3-3-----3-3-|
G-6---6-6-----6-6-|-7---7-7-----7-7-|-4---4-4-----4-4-|-4---4-4-----4-4-|
D-7---7-7-----7-7-|-9---9-9-----9-9-|-5---5-5-----5-5-|-5---5-5-----5-5-| x2
A-7---7-7-----7-7-|-9---9-9-----9-9-|-5---5-5-----5-5-|-5---5-5-----5-5-|
E-5---5-5-----5-5-|-7---7-7-----7-7-|-3---3-3-----3-3-|-3---3-3-----3-3-|

VERSE
same as previous verse, no guitars.

CHORUS

Guitar 1
E---------------------|---------------------|--------------------|
B---------------------|---------------------|--------------------|
G-11-11-11-9-9-9-9-11-|-11-11-11-9-9-9-9-11-|-11-11-11-9-9-9-9-9-|
D---------------------|---------------------|--------------------|
A-9--9--9--7-7-7-7-9--|-9--9--9--7-7-7-7-9--|-9--9--9--7-7-7-7-7-|
E---------------------|---------------------|--------------------|

E-----------------|
B-----------------|
G-9-9-9-9-7-7-7-7-|
D-----------------| x4
A-7-7-7-7-5-5-5-5-|
E-----------------|

Guitar 2
E-5---5-5-----5-5-|-7---7-7-----7-7-|-3---3-3-----3-3-|-3---3-3-----3-3-|
B-5---5-5-----5-5-|-7---7-7-----7-7-|-3---3-3-----3-3-|-3---3-3-----3-3-|
G-6---6-6-----6-6-|-7---7-7-----7-7-|-4---4-4-----4-4-|-4---4-4-----4-4-|
D-7---7-7-----7-7-|-9---9-9-----9-9-|-5---5-5-----5-5-|-5---5-5-----5-5-| x4
A-7---7-7-----7-7-|-9---9-9-----9-9-|-5---5-5-----5-5-|-5---5-5-----5-5-|
E-5---5-5-----5-5-|-7---7-7-----7-7-|-3---3-3-----3-3-|-3---3-3-----3-3-|

SOLO

Guitar 1
E---------------------------|-----------------------|-----------------|
B---------------------------|-----------------------|-----------------|
G-9b11-11-11-11-11-11-11-11-|-11-11-11-11-9p7---9-7~|-------------9-7~|
D---------------------------|-----------------9-----|-----9~----9-----|
A---------------------------|-----------------------|-----------------|
E---------------------------|-----------------------|-----------------|

E-----------------|
B-----------------|
G-----9~----------|
D-----------------|
A-----------------|
E-----------------|

Guitar 2
E-5-5-5-5-5-5-5-5-|-7-7-7-7-7-7-7-7-|-3-3-3-3-3-3-3-3-|-3-3-3-3-3-3-3-3-|
B-5-5-5-5-5-5-5-5-|-7-7-7-7-7-7-7-7-|-3-3-3-3-3-3-3-3-|-3-3-3-3-3-3-3-3-|
G-6-6-6-6-6-6-6-6-|-7-7-7-7-7-7-7-7-|-4-4-4-4-4-4-4-4-|-4-4-4-4-4-4-4-4-|
D-7-7-7-7-7-7-7-7-|-9-9-9-9-9-9-9-9-|-5-5-5-5-5-5-5-5-|-5-5-5-5-5-5-5-5-| x2
A-7-7-7-7-7-7-7-7-|-9-9-9-9-9-9-9-9-|-5-5-5-5-5-5-5-5-|-5-5-5-5-5-5-5-5-|
E-5-5-5-5-5-5-5-5-|-7-7-7-7-7-7-7-7-|-3-3-3-3-3-3-3-3-|-3-3-3-3-3-3-3-3-|

CHORUS

Guitar 1
E-------------------------|
B-------------------------|
G-11-11-11-11-11-11-11-11-|
D-------------------------| x8
A-9--9--9--9--9--9--9--9--|
E-------------------------|

Guitar 2
E-5-5-5-5-5-5-5-5-|-7-7-7-7-7-7-7-7-|-3-3-3-3-3-3-3-3-|-3-3-3-3-3-3-3-3-|
B-5-5-5-5-5-5-5-5-|-7-7-7-7-7-7-7-7-|-3-3-3-3-3-3-3-3-|-3-3-3-3-3-3-3-3-|
G-6-6-6-6-6-6-6-6-|-7-7-7-7-7-7-7-7-|-4-4-4-4-4-4-4-4-|-4-4-4-4-4-4-4-4-|
D-7-7-7-7-7-7-7-7-|-9-9-9-9-9-9-9-9-|-5-5-5-5-5-5-5-5-|-5-5-5-5-5-5-5-5-| x2
A-7-7-7-7-7-7-7-7-|-9-9-9-9-9-9-9-9-|-5-5-5-5-5-5-5-5-|-5-5-5-5-5-5-5-5-|
E-5-5-5-5-5-5-5-5-|-7-7-7-7-7-7-7-7-|-3-3-3-3-3-3-3-3-|-3-3-3-3-3-3-3-3-|

OUTRO

Guitar 1
E----------------------------|
B----------------------------|
G-11-11-11-11-11-11-11-11b12-|
D----------------------------| x16
A-9--9--9--9--9--9--9--9-----|
E----------------------------|

Guitar 2
E-5-5-5-5-5-5-5-5-|-7-7-7-7-7-7-7-7-|-3-3-3-3-3-3-3-3-|-3-3-3-3-3-3-3-3-|
B-5-5-5-5-5-5-5-5-|-7-7-7-7-7-7-7-7-|-3-3-3-3-3-3-3-3-|-3-3-3-3-3-3-3-3-|
G-6-6-6-6-6-6-6-6-|-7-7-7-7-7-7-7-7-|-4-4-4-4-4-4-4-4-|-4-4-4-4-4-4-4-4-|
D-7-7-7-7-7-7-7-7-|-9-9-9-9-9-9-9-9-|-5-5-5-5-5-5-5-5-|-5-5-5-5-5-5-5-5-| x4
A-7-7-7-7-7-7-7-7-|-9-9-9-9-9-9-9-9-|-5-5-5-5-5-5-5-5-|-5-5-5-5-5-5-5-5-|
E-5-5-5-5-5-5-5-5-|-7-7-7-7-7-7-7-7-|-3-3-3-3-3-3-3-3-|-3-3-3-3-3-3-3-3-|

so there you go. simples.
Tap to rate this tab
# A B C D E F G H I J K L M N O P Q R S T U V W X Y Z