Song name
# A B C D E F G H I J K L M N O P Q R S T U V W X Y Z

The Temper Trap - Down River tab

Title: Down River
Artist: The Temper Trap
Album: Conditions

Standard Tuning
No Capo
For the original sound, a classical guitar is required for the intro and lead.

Please rate and/or give feedback, e-mail me any corrections to 
jay.wray@hotmail.com



    D        G        D       G

e|-------------------------------|
a|-------------------------------|
d|--11---\---4---/---11---/---4--|
g|--0----\---0---/---0----/---0--|
b|-------\-------/--------/------|
E|--10---\---3---/---10---/---3--|

     D                        G

e|---------------------------------------------|
a|---------------------------------------------|
d|--11-11-11-11-11-11-11-11-\-4-4-4-4-4-4-4-4--|
g|--12-12-12-12-12-12-12-12-\-5-5-5-5-5-5-5-5--|
b|--12-12-12-12-12-12-12-12-\-5-5-5-5-5-5-5-5--|
E|--10-10-10-10-10-10-10-10-\-3-3-3-3-3-3-3-3--|


    D                         G

e|---------------------------------------------|
a|---------------------------------------------|
d|-----11------11-----------\---4------4-------|
g|----------12----12----12--\--------5---5---5-|
b|--------------------------\------------------|
E|--10---10----------10-----\-3---3--------3---|

Enjoy
Tap to rate this tab
# A B C D E F G H I J K L M N O P Q R S T U V W X Y Z