The Temper Trap - Down River tab

Down River by Temper Trap.

Intro

e|-----------------------------------|
B|-----------------------------------|
G|--11--11/4-4-4/11-11-11/4-4-4/11---|
D|--------/-----/--------/-----/-----|
A|--------/-----/--------/-----/-----|
E|--10--10/3-3-3/10-10-10/3-3-3/10---|

e|------------------------------------------|
B|------------------------------------------|
G|----11-------11-------11---4-----4-----4--|
D|-------12-------12-----------5-----5------| X2
A|------------------------------------------|
E|--10------10-------10----3-----3-----3----|

Verse

e|------|-----|------|-----|-----|-----|------|------|
B|------|-----|------|-----|-----|-----|------|------|
G|--11--|--4--|--11--|--4--|--8--|--6--|--10--|--13--|
D|--12--|--5--|--12--|--5--|-----|-----|------|--14--|
A|------|-----|------|-----|--9--|--7--|--11--|------|
E|--10--|--3--|--10--|--3--|--7--|--5--|--9---|--12--|

Chorus

e|---------------------------------------------|
B|---------------------------------------------|
G|----11-------11-------11-------11------11----|
D|-------12-------12-------12-------12------10-| 
A|---------------------------------------------|
E|--10------10-------10-------10-------9-------|

e|---------------------------------------------|
B|---------------------------------------------|
G|----11-------11-------11-------11------13----|
D|-------12-------12-------12-------12------14-| 
A|---------------------------------------------|
E|--10------10-------10-------10-------12------|

e|------|------|------|------|
B|------|------|------|------|
G|--13--|--13--|--10--|--10--|
D|--14--|--14--|------|------|
A|------|------|--11--|--11--|
E|--12--|--12--|--9---|--9---|

Order:

Intro
Verse x3
Chorus x2
Intro
Verse x3
Chorus x2
Verse x2
Tap to rate this tab
 
# A B C D E F G H I J K L M N O P Q R S T U V W X Y Z