Song name
# A B C D E F G H I J K L M N O P Q R S T U V W X Y Z

The Temper Trap - Science Of Fear tab

-------------------------------------------------------------------------------
			Science Of Fear  - Temper Trap

-------------------------------------------------------------------------------
Tabbed by:James Jackson
Email:jackson100693@gmail.com

Tuning:standard

Intro: Bm, G

Verse: Bm,G,Em,G,A 

The chorus is the same chords as the verse.

Break:

e|-------------------0-----------------------0-----|
B|-----3-----3-----3---3------3-----3-----3-----3--|
G|--4-----4-----4----------4-----4-----4-----------|
D|-------------------------------------------------|
A|-------------------------------------------------|
E|-------------------------------------------------|

e|-------------------0-----------------------0-----|
B|-----3-----3-----3---3------3-----3-----3-----3--|
G|--0-----0-----0----------0-----0-----0-----------|
D|-------------------------------------------------|
A|-------------------------------------------------|
E|-------------------------------------------------|






| /  slide up
| \  slide down
| h  hammer-on
| p  pull-off
| ~  vibrato
| +  harmonic
| x  Mute note
===============================================================================
Tap to rate this tab
 
# A B C D E F G H I J K L M N O P Q R S T U V W X Y Z