The Temper Trap - Sweet Disposition tab

The Temper Trap - Sweet Disposition (Intro)

To make this sound like the real thing add a lot of Delay

Enjoy

e --------------------------------------------------|
B --------------------------------------------------|
G --------0--2--------0--2--------0--2--------0--2--|
D --0--4--------0--4--------0--4--------0--4--------|
A --------------------------------------------------|
E --------------------------------------------------|

e ---------------------------------------------------|
B ---------------------------------------------------|
G ---------------------------------------------------|
D -----0--2--4-----0--2--4------0--2--4------0--2--4-|
A --2-----------2-----------2-------------2----------|
E ---------------------------------------------------|
Tap to rate this tab
 
# A B C D E F G H I J K L M N O P Q R S T U V W X Y Z