The Temper Trap - Soldier On tab

This is an amazing song :)

seeing as the rest of the song's already tabbed out, I'll leave that, and just do the 
solo, cos no-one's tabbed it yet :P


e|----------------------------------------------------------------------------|
B|----------------------------------------------------------------------------|
G|----7-7-7-7-7-7-7-7/11-11-11-11-11-11-11-11/2-2-2-2-2-2-2-2/4-4-4-4-4-4-4-4-|
D|----0-0-0-0-0-0-0-0-0--0--0--0--0--0--0--0--0-0-0-0-0-0-0-0-0-0-0-0-0-0-0-0-|
A|----------------------------------------------------------------------------|
E|----------------------------------------------------------------------------|



Then this is played over the chords Bm, D, F#m, G:


Riff 1

e|--------------------2-2------------------------|
B|----0-0-3-0-3-0--3-3-3-3-----------------------|
G|----------------------------2-2---0-0-4-0-4-0--| x4
D|-------------------------4-4-4-4---------------|
A|-----------------------------------------------|
E|-----------------------------------------------|




|-------------------------              |-------------------------|
|-------------------------              |-------------------------|  repeat
|----11-11-11-11-12-11---- x3    then : |----11-11-11-14-16-------|  the
|----------------------12-              |-------------------16-14-|  whole
|-------------------------              |-------------------------|  thing
|-------------------------              |-------------------------|  twice



|----------------------------------------------------------------------------|
|----------------------------------------------------------------------------|
|----12-11-12-11-12-11-12-14-12-11-12-11-12-11-12-14-14-14-14-14-14-14-14-14-|
|----------------------------------------------------------------------------|
|----------------------------------------------------------------------------|
|----------------------------------------------------------------------------|




|----------------------------------------------------------------------|
|----------------------------14-12-14-12-14-12-15-12-15-12-15-12-15-12-|
|----16-16-16-16-16-16-16-16-------------------------------------------|
|----------------------------------------------------------------------|
|----------------------------------------------------------------------|
|----------------------------------------------------------------------|



|----12-12-12-12-12-12-14-14-14-14-14-12-10-|
|-------------------------------------------|
|-------------------------------------------|
|-------------------------------------------|
|-------------------------------------------|
|-------------------------------------------|



Then Riff 1 twice after the solo finishes.

Enjoy! :)
Tap to rate this tab
 
# A B C D E F G H I J K L M N O P Q R S T U V W X Y Z