Song name
# A B C D E F G H I J K L M N O P Q R S T U V W X Y Z

The Temper Trap - Soldier On tab

E|------------------------------------------------------------------------------7-----|
B|-----7-----8--7-----7-----7-----8--7-----7-----7-----8--7-----7-----7-----10-----7--|
G|--7-----7--------7-----7-----7--------7-----7-----7--------7-----7-----7------------|
D|------------------------------------------------------------------------------------|
A|------------------------------------------------------------------------------------|
E|------------------------------------------------------------------------------------|


E|------------------------------------------------------------------------------7-----|
B|-----7-----8--7-----7-----7-----8--7-----7-----7-----8--7-----7-----7-----10-----7--|
G|--7-----7--------7-----7-----7--------7-----7-----7--------7-----7-----7------------|
D|------------------------------------------------------------------------------------|
A|------------------------------------------------------------------------------------|
E|------------------------------------------------------------------------------------|


E|-------------------------------------------------------------|
B|--7--7--8--7--8--7--8--7--8--10--8--7--8--7--8--7--8--10-----|
G|-------------------------------------------------------------|
D|-------------------------------------------------------------|
A|-------------------------------------------------------------|
E|-------------------------------------------------------------|



E|------------------------------------------------------------------|
B|--10--10--10--10--10--10--10--10--12--12--12--12--12--12--12--12--|
G|------------------------------------------------------------------|
D|------------------------------------------------------------------|
A|------------------------------------------------------------------|
E|------------------------------------------------------------------|



E|------------------------------------------------------------------|
B|--14--12--14--12--14--12--14--12--15--12--15--12--15--12--15--12--|
G|------------------------------------------------------------------|
D|------------------------------------------------------------------|
A|------------------------------------------------------------------|
E|------------------------------------------------------------------|



E|------------------------------------------------------------------------|
B|--17--17--17--17--17--17--17--17--17b19--19--19--19--19--17b18--18--15--|
G|------------------------------------------------------------------------|
D|------------------------------------------------------------------------|
A|------------------------------------------------------------------------|
E|------------------------------------------------------------------------|

That end bit is all the same bend on the 17th fret. You bend all the way up to 19 and 
pick it,
 then you lessen the bend to 18 while continuing to pick and finally release it and pick 
the 15
 at the end. So your finger stays in the 17th fret the whole time. Listen to the CD for timing.

PS. The 17's right before the bend might be VERY slightly bent up. Like we are talking 
somewhere in between 17 and 18. So just play what feels right.
Tap to rate this tab
# A B C D E F G H I J K L M N O P Q R S T U V W X Y Z