Song name
# A B C D E F G H I J K L M N O P Q R S T U V W X Y Z

The Temperance Movement - Lovers And Fighters tab

-----------------------------------------------------------------------------
                        Lovers and Fighters  The Temperance Movement
-----------------------------------------------------------------------------
Tabbed by: Nipper1303
E-mail: martin.gorton3@hotmail.co.uk

Tuning: Standard (EADGBe)

e|-----------------------------------------------------5-------5------------|
B|-------5---------------------------------------------7b(1/4)p5------------|
G|-2/6-------4h6---4b6---2---4---2-------2---4---------------------7--6brbr-|
D|-----------------------------------4-----------2h4------------------------|
A|--------------------------------------------------------------------------|
E|--------------------------------------------------------------------------|

e|--------------------------------------------------------------------------|
B|---------------------------------------------------------14b15---14---14--|
G|-16b18---14---16---14--------14---16-----------14---16--------------------|
D|------------------------16-------------14h16------------------------------|
A|--------------------------------------------------------------------------|
E|--------------------------------------------------------------------------|

e|-17---16---14-------------------------------------------------------------|
B|----------------17---15---14---15---14---15---14\10/12---12\7---x---------|
G|----------------------------------------------------------------x---9h11--|
D|----------------------------------------------------------------x---------|
A|--------------------------------------------------------------------------|
E|--------------------------------------------------------------------------|

e|------10-------9-------7h9p7----------------------------------------------|
B|-----------------------------------9---10h12r10---------------------------|
G|-11--------9-------9-----------9------------------------------------------|
D|--------------------------------------------------------------------------|
A|--------------------------------------------------------------------------|
E|--------------------------------------------------------------------------|

************************************

| /   slide up
| \   slide down
| h   hammer-on
| p   pull-off
| ~   vibrato
| +   harmonic
| x   Mute note
| b   Bend
| pb  Pre-bend
| br  Bend release
| pbr Pre-bend release
| brb Bend release bend

************************************
Tap to rate this tab
# A B C D E F G H I J K L M N O P Q R S T U V W X Y Z