Song name
# A B C D E F G H I J K L M N O P Q R S T U V W X Y Z

The Tenants - Ready To Rumble tab

Help us improve GuitareTab! Take a short survey!
-------------------------------------------------------------------------------
			     Ready To Rumble - The Tenants
-------------------------------------------------------------------------------
Tabbed by: Tyler J
Email: full_metal_orange AT Hotmail DOT com

Tuning: Standard


INTRO FEEDBACK NOTES
E-|---------------12~~~~~~~~~~~--|-
B-|------------------------------|-
G-|-12~~~~~~~~~~-----------------|-
D-|------------------------------|-
A-|------------------------------|-
E-|------------------------------|-

INTRO:
E-|-------------------------------|-
B-|-------------------------------|-
G-|-------------------------------|-
D-|-------------------------------|-
A-|-------------------------------|-
E-|-12\--0----0-1----1-2----2-3---|-

E-|------------------|-
B-|------------------|-
G-|-x-x-12-x-12-x-12-|-
D-|-x-x-12-x-12-x-12-|-(x 4)
A-|-x-x-10-x-10-x-10-|-
E-|------------------|-

VERSE PROGRESSIONS:
    G                        C     A# G
E-|--------------------------------------|-
B-|--------------------------------------|-
G-|--------------------------------------|-
D-|-x-x-x-x-x-x-x-x-x-x-x-x--10-10--8--5-|-
A-|-x-x-x-x-x-x-x-x-x-x-x-x--10-10--8--5-|-
E-|-x-x-x-x-x-x-x-x-x-x-x-x--8--8---6--3-|-

CHORUS CHORDS:
E-|------------------------------------------------------------|-
B-|------------------------------------------------------------|-
G-|-------------5-5-5-5-5-5-5-3----------------3-5-5-5-5-5-5-5-|-
D-|-5-5--8-8-8--5-5-5-5-5-5-5-3--5-5-5-5-5-5-5-3-5-5-5-5-5-5-5-|-
A-|-5-5--8-8-8--3-3-3-3-3-3-3-1--5-5-5-5-5-5-5-1-3-3-3-3-3-3-3-|-
E-|-3-3--6-6-6-------------------3-3-3-3-3-3-3-----------------|-

E-|----------------------|-
B-|----------------------|-
G-|-7-7-7-7--10-10-10-10-|-
D-|-7-7-7-7--10-10-10-10-|-
A-|-5-5-5-5--8--8--8--8--|-
E-|----------------------|-

BEFORE 2ND VERSE:
E-|-------------------------|-
B-|-------------------------|-
G-|-------------------------|-
D-|-5~~----2-3---5~~----2-3-|-
A-|-5~~----2-3---5~~----2-3-|-
E-|-3~~----0-1---3~~----0-1-|-

BRIDGE / LEAD BREAK:
E-|---------------------------------|-
B-|---------------------------------|-
G-|------5p3p0-5p3p0-5p3p0--5~-3~---|-
D-|-5-5-----------------------------|-
A-|-5-5-----------------------------|-
E-|-3-3-----------------------------|-

E-|--------------3----------------|-
B-|------------3---6-3------------|-
G-|-------3--5---------5~--3--0---|-
D-|-5-5---------------------------|-
A-|-5-5---------------------------|-
E-|-3-3---------------------------|-

E-|--------------------------------|-
B-|--------------------------------|-
G-|------------------------3~~--0--|-
D-|-5-5--5p3p0-5p3p0-5p3p0---------|-
A-|-5-5----------------------------|-
E-|-3-3----------------------------|-

E-|------------------------------|-
B-|------6p3p0-6p3p0-6p3p0-------|-
G-|------------------------3~~0--|-
D-|-5-5--------------------------|-
A-|-5-5--------------------------|-
E-|-3-3--------------------------|-

SOLO: you're on your own here :) (rhythm play chorus chords)

3RD VERSE:
E-|-------------------------|-
B-|-------------------------|-
G-|-------------------------|-
D-|-5~~----2-3---5~~----2-3-|-
A-|-5~~----2-3---5~~----2-3-|-
E-|-3~~----0-1---3~~----0-1-|-

OUTRO:
E-|---------------------|-
B-|---------------------|-
G-|---------------------|-
D-|-5-x-x-5-x-x-5--8-10-|-
A-|-5-x-x-5-x-x-5--8-10-|-
E-|-3-x-x-3-x-x-3--6-8--|-
Related for Ready To Rumble tab