Song name
# A B C D E F G H I J K L M N O P Q R S T U V W X Y Z

The The - Uncertain Smile tab

Uncertain Smile by The The
Intro and middle solo on Acoustic Guitar

--0-------0---------------------0----------------------------|
----4---------0-------0--------------------------------------|
------4-----3-------6-------2-2------------------------------|
------------------7------------------------------------------|
-------------------------------------------------------------|
-------------------------------------------------------------|
Repeat until singing, then play proper chords.

Then, the "solo":

-------------------------------------------------------------|
---8--------7-------------8----------10----------------------|
-----7---7----6---6-----7----------9-------------------------|
-------9--------8-----9-----9-9/11---------------------------|
-------------------------------------------------------------|
-------------------------------------------------------------|

For the solo, there's a hand shape you use and slide around the three strings that makes 
solo way easier. Middle finger on B string, index finger on G string, and ring finger 
D string.

Well play around and hope it works.
Tap to rate this tab
# A B C D E F G H I J K L M N O P Q R S T U V W X Y Z