Song name
# A B C D E F G H I J K L M N O P Q R S T U V W X Y Z

The The - Helpline Operator tab

This is one of those bands that use the base more then the guitar
so theres not much guitar in this song and this is all i have figured out

best when tuned down half a step
|---------------------------------|
|---------------------------------|
|-------4-------4-------4---6---4-|
|-4-5-6---6-4-6---6-4-6---6---6---|
|---------------------------------|
|---------------------------------|

|---------------------------------|
|---------------------------------|
|-------4-------4-------4---6---4-|
|-4-5-6---6-4-6---6-4-6---6---6---|
|---------------------------------|
|---------------------------------|

|---------------------------------|
|---------------------------------|
|-------4-------4-------4---6---4-|
|-4-5-6---6-4-6---6-4-6---6---6---|
|---------------------------------|
|---------------------------------|

-MW
Tap to rate this tab
# A B C D E F G H I J K L M N O P Q R S T U V W X Y Z