Song name
# A B C D E F G H I J K L M N O P Q R S T U V W X Y Z

The Thermals - An Ear For Baby tab

Intro:

A

Verse 1:

D
Pull out your dead roots,
G
Pull out your best suit.
D                        G
It's time to inspect the subjects.

D
Lose your intentions,
G
Lose all your common sense, it's
E                     A
Time to groom you for judgment.

D
Stick to a numb stare,
G
Strip to your underwear.
D                       G
It's time for you to be cleansed.

D
Keep your eyes straight,
G
For Christ's sake,
E                   A
Remember we're your friends!


Pre-Chorus:

A                    D
   Good luck getting over the fence.
A                    D
   Good luck putting even a dent in

Am7
   The mission,
G
The plan
A
  Just breathe,
          G            A    
You don't need to understand.


Chorus:

D
Can you hear me?
A
The siren's on.
Bm
Let the water run,
G         A
Leave the lights on.

D          E
An ear for baby if you need it.
F#m
Can you hear me?
G      A
I'll repeat it.


Verse 2 (same chords as Verse 1):

Draw the bridges,
Dig the ditches deep.
We're gonna need a new border.

Get thyself in line,
It's time for reassignment. It's
Time for a new first world order.

We got a job to do,
We don't ask, we tell you.
Work is freedom.
Sloth is sin.

So pull out your dead roots,
Pull out your best suit.
You know, the one they're gonna
Bury you in.


Pre-Chorus 2 (same chords as Pre-Chorus 1):

Good luck getting God on the phone.
Good luck getting even a tone.

You can trust me,
It's not a test,
And I won't 
Leave you in this mess. Any questions?
(You, in the back.)


Chorus 2 (same chords as Chorus 1):

Can you hear me?
The siren's on.
Let the water run,
Leave the lights on.

An ear for baby if you need it.
Can you hear me?
I'll repeat it.


Solo: (Same chords as the Verse):

E|-----------------------------------------------|
B|-----------------------------------------------|
G|-----------------------------------------------|
D|7--5--4---------4------------------------------|
A|---------7--7-5----7-5-5------5--5-------------|
E|--------------------------7-5-------7-5-5------|

E|-------------------------------------------|
B|-------------------------------------------|
G|----------------7--7--6-4-6--7-6-7--9-7-9--|
D|7--5--4--9--7-9----------------------------|
A|-------------------------------------------|
E|-------------------------------------------|

E|--------------------15--14----|
B|---------------14-------------|
G|12-11-12--14------------------|
D|------------------------------|
A|------------------------------|
E|------------------------------|

Pre-Chorus 3 (Same chords as Pre-Chorus 1 & 2):

Good luck getting over the fence.
Good luck putting even a dent in

The mission,
The dream.
The body, the blood,
The machine.

Chorus 3 (same chords as Verse 1 & 2):

Can you hear me?
The siren's on.
Let the water run,
Leave the lights on.

An ear for baby if you need it.
Can you hear me?
I'll repeat it.

Outro:

D
Tap to rate this tab
# A B C D E F G H I J K L M N O P Q R S T U V W X Y Z