Song name
# A B C D E F G H I J K L M N O P Q R S T U V W X Y Z

The Thermals - Now We Can See tab

-------------------------------------------------------------------------------
			     Now We Can See - The Thermals
-------------------------------------------------------------------------------
Tabbed by: Brian
Email: gobucks150287@yahoo.com

Tuning: Standard

I tabbed this by ear. After listening to the song many times and watching clips of
play it, this sounds just about dead on to me. It can be played without the slides in the
but you can see him do it in the music video, plus it's more fun just to leave it in. 
below if you have any thoughts or suggestions.

e|------------------------------------------------------------------------|
B|-12-12--10-10-10-10--12-12--10-10-10-10~--------------------------------|
G|-14-14--12-10-12-10--14-14--12-10-12-10~-------10-----------------------|
D|------------------------------------------10h12----10h12-10-------------|
A|------------------------------------------------------------------------|
E|------------------------------------------------------------------------|

e|------------------------------------------------------------------------|
B|------------------------------------------------------------------------|
G|------------------------------------------------------------------------|
D|------------------------------------------------14-12-------------------|
A|-12----------------------------------------13h15------------------------|
E|---13--13-13-12-13-13-13-12-13\-0/13-13h15------------------------------|

e|------------------------------------------------------------------------|
B|-----------------12-12--10-10-10-10~------------------------------------|
G|-12b14-10-12-10--14-14--12-10-12-10~------------------------------------|
D|------------------------------------------------------------------------|
A|------------------------------------------------------------------------|
E|------------------------------------------------------------------------|

| /  slide up
| \  slide down
| h  hammer-on
| ~  vibrato
===============================================================================
Tap to rate this tab
# A B C D E F G H I J K L M N O P Q R S T U V W X Y Z