Song name
# A B C D E F G H I J K L M N O P Q R S T U V W X Y Z

The Thermals - At The Bottom Of The Sea tab

THE THERMALS - AT THE BOTTOM OF THE SEA  /ALBUM: NOW WE CAN SEE (2009)

Very easy song! Feel free to rate & comment.

Part 1: Intro & Verse
E|---------------------------------|
B|---------------------------------|
G|---------------------------------|
D|---7-/-10-10-10-10-10-10-10------| 4x
A|---7-/-10-10-10-10-10-10-10------|
E|---5-/-8--8--8--8--8--8--8-------|

E|---------------------------------|
B|---------------------------------|
G|---------------------------------|
D|---3-3-3-3-3-3-2-3-3-3-3-3-3-3-3-|
A|---3-3-3-3-3-3-2-3-3-3-3-3-3-3-3-|
E|---1-1-1-1-1-1-0-1-1-1-1-1-1-1-1-|

E|---------------------------------|
B|---------------------------------|
G|---------------------------------|
D|---7-/-10-10-10-10-10-10-10------| 2x
A|---7-/-10-10-10-10-10-10-10------|
E|---5-/-8--8--8--8--8--8--8-------|


Part 2: "I'm barely there for you..."
E|-----------------------------------|
B|-----------------------------------|
G|-----------------------------------|
D|---5-5-5-5-5-5-5-5-3-3-3-3-3-3-3-3-|
A|---5-5-5-5-5-5-5-5-3-3-3-3-3-3-3-3-|
E|---3-3-3-3-3-3-3-3-1-1-1-1-1-1-1-1-|

E|-------------------------------|
B|-------------------------------|
G|-------------------------------|
D|---7-/-10-10-10-10-10-10-10----|  2x
A|---7-/-10-10-10-10-10-10-10----|
E|---5-/-8--8--8--8--8--8--8-----|


Part 3: "I will never come up..."
E|--------------------------------|
B|--------------------------------|
G|---0-0-2-2--2----5-5-4-4--4-----|
D|---2-2-3-3--3----7-7-5-5--5-----| 3x
A|---2-2-3-3--3----7-7-5-5--5-----|
E|---0-0-1-1--1----5-5-3-3--3-----|


Part 4: "For the air, for the light..."
E|-----------------------------------|
B|-----------------------------------|
G|-----------------------------------|
D|---5-5-5-5-5-5-5-5-3-3-3-3-3-3-3-3-|
A|---5-5-5-5-5-5-5-5-3-3-3-3-3-3-3-3-|
E|---3-3-3-3-3-3-3-3-1-1-1-1-1-1-1-1-|

E|-------------------------------|
B|-------------------------------|
G|-------------------------------|
D|---7-/-10-10-10-10-10-10-10----|  2x
A|---7-/-10-10-10-10-10-10-10----|
E|---5-/-8--8--8--8--8--8--8-----|

Lyrics:

The air isn't thin
The air isn't thick
The air isn't anything
It doesn't exist
It's not what we need
At the bottom of the sea

The light is gray
The light is rare
It barely touches us
It's barely there for me
At the bottom of the sea

And I'm barely there for you (2x)

I will never come up
I will never compare
Wind to the sand
Water to air
It's what I need

The love is near
I hear it speak
It's in my sight
But just out of reach
It slips from my hand
Just like it did on the land

And I'm barely there for you (2x)

I will never come up
I will never compare
Wind to the sand
Water to air
It's not what I want
It's what I need

For the air                -
For the light               |
For the love                | 2x
Is barely there for me      |
At the bottom of the sea   -
For the air
For the light
For the love
It's not what I want
It's what I need
Tap to rate this tab
# A B C D E F G H I J K L M N O P Q R S T U V W X Y Z