Song name
# A B C D E F G H I J K L M N O P Q R S T U V W X Y Z

The Thermals - Returning To The Fold tab

      h - hammer on 
      p - pull off 
      b - bend string up
      r - release bend
      / - slide up
      \ - slide down
      v - vibrato (sometimes written as ~)
      t - tap (with strumming hand)
      x - muted, struck string



                            'Returning To The Fold'
                               by 'The Thermals'
                   Off of 'The Body, The Blood, The Machine'

Tabbed by: Minimee99



Hi-hat intro on drums for 2 bars then...


Main Riff (guitar 1)

e---------------|--------------|--------------|----------------|
B---------------|--------------|--------------|----------------|
G---------------|--------------|--------------|----------------|
D----------9-9--|---------6-6--|--------------|----------------|
A-9-9-9----7-7-0|9-9-9----4-4-0|6-6-6----4-4-0|222-2-2-2-2-2-2-|
E-7-7-7--------0|7-7-7--------0|4-4-4----2-2-0|000-0-0-0-0-0-0-| x2
                                                                     


Verse1                                I regret leavin my...

e---------------|--------------|--------------|----------------|
B---------------|--------------|--------------|----------------|
G---------------|--------------|--------------|----------------|
D----------9-9--|---------6-6--|--------------|----------------|
A-9-9-9----7-7-0|9-9-9----4-4-0|6-6-6----4-4-0|222-2-2-2-2-2-2-|
E-7-7-7--------0|7-7-7--------0|4-4-4----2-2-0|000-0-0-0-0-0-0-| x2
  soul          I forgot I needed it,   To feel.   Maybe when I 
  die          I'll just grab it real quick, I'm comin right back.


Solo Riff1(guitar 1)

e---------------|--------------|--------------|----------------|
B---------------|--------------|--------------|----------------|
G---------------|--------------|--------------|----------------|
D----------9-9--|---------6-6--|--------------|----------------|
A-9-9-9----7-7-0|9-9-9----4-4-0|6-6-6----4-4-0|222-2-2-2-2-2-2-|
E-7-7-7--------0|7-7-7--------0|4-4-4----2-2-0|000-0-0-0-0-0-0-| x1


Solo Riff1(guitar 2)
                                                      let ring
e---------------|--------------|--------------|----------------|
B------16-16-16-|-16-16-16-16--|13\11-11-16-16|-13\11-11-------|
G------16-16-16-|-16-16-16-16--|13\11-11-16-16|-13\11-11-------|
D---------------|--------------|--------------|----------------|
A---------------|--------------|--------------|----------------|
E---------------|--------------|--------------|----------------|x1
                                              I regret leavin my...


Verse2 (guitar 1)

e---------------|--------------|--------------|----------------|
B---------------|--------------|--------------|----------------|
G---------------|--------------|--------------|----------------|
D----------9-9--|---------6-6--|--------------|----------------|
A-9-9-9----7-7-0|9-9-9----4-4-0|6-6-6----4-4-0|222-2-2-2-2-2-2-|
E-7-7-7--------0|7-7-7--------0|4-4-4----2-2-0|000-0-0-0-0-0-0-| x2
  mind          I forgot I needed it,  To think. and maybe to keep me
  alive           I can't believeI got so far, with a head so empty.


Chorus(guitar 1)

e----------------|----------------|----------------|----------------|
B----------------|----------------|----------------|----------------|
G----------------|----------------|----------------|----------------|
D----------------|----------------|----------------|-6-6-6-6-6-6-6--|
A-9-9-9-9-9-9-9-9|-9-9-9-9-9-9-900|-4-4-4-4-4-4-400|-4-4-4-4-4-4-400|
E-7-7-7-7-7-7-7-7|-7-7-7-7-7-7-700|-2-2-2-2-2-2-200|--------------00|
     But I still have eyes,      wait for me,    wait for me
      But I still have feet,     wait for me,    wait for me

Solo Riff2 (guitar 1)

e---------------|--------------|--------------|----------------|
B---------------|--------------|--------------|----------------|
G---------------|--------------|--------------|----------------|
D----------9-9--|---------6-6--|--------------|----------------|
A-9-9-9----7-7-0|9-9-9----4-4-0|6-6-6----4-4-0|222-2-2-2-2-2-2-|
E-7-7-7--------0|7-7-7--------0|4-4-4----2-2-0|000-0-0-0-0-0-0-| x2


Solo Riff2 (guitar 2)

e-----------|--------------|-----------------------|-------11--------------|
B--16-16-16-|-16-16-16-16--|13\11-11/13-13\11-11/13|-13\11-12-11/13/11-----|
G--16-16-16-|-16-16-16-16--|13\11-11/13-13\11-11/13|-13\11----11/13/11-----|
D-----------|--------------|-----------------------|-----------------------|
A-----------|--------------|-----------------------|-----------------------|
E-----------|--------------|-----------------------|-----------------------|

e---------------|--------------|--------------|-------------------------|
B-/16-16-/17-17-|/16-16-/17-17-|-17-17-16-16--|-19-19-19-19-19-19-19-19-|
G-/16-16-/16-16-|/16-16-/16-16-|-16-16-16-16--|-16-16-16-16-16-16-16-16-|
D---------------|--------------|--------------|-------------------------|
A---------------|--------------|--------------|-------------------------|
E---------------|--------------|--------------|-------------------------|x1
                                                       I regret leavin at


Verse 3 (guitar 1)

e---------------|--------------|--------------|----------------|
B---------------|--------------|--------------|----------------|
G---------------|--------------|--------------|----------------|
D----------9-9--|---------6-6--|--------------|----------------|
A-9-9-9----7-7-0|9-9-9----4-4-0|6-6-6----4-4-0|222-2-2-2-2-2-2-|
E-7-7-7--------0|7-7-7--------0|4-4-4----2-2-0|000-0-0-0-0-0-0-| x2
  all          I forgot I needed god,like a big brother. And maybe when I
  die, ya when i die.I will die escaping, I'll die returning to the fold

Chorus(guitar 1)

e----------------|----------------|----------------|----------------|
B----------------|----------------|----------------|----------------|
G----------------|----------------|----------------|----------------|
D----------------|----------------|----------------|-6-6-6-6-6-6-6--|
A-9-9-9-9-9-9-9-9|-9-9-9-9-9-9-900|-4-4-4-4-4-4-400|-4-4-4-4-4-4-400|
E-7-7-7-7-7-7-7-7|-7-7-7-7-7-7-700|-2-2-2-2-2-2-200|--------------00|
     But I still have eyes,      wait for me,    wait for me
      But I still have feet,     wait for me,    wait for me

Chorus/outro (guitar 1)

e----------------|----------------|----------------|----------------|
B----------------|----------------|----------------|----------------|
G----------------|----------------|----------------|----------------|
D----------------|----------------|----------------|-6-6-6-6-6-6-6-6|
A-9-9-9-9-9-9-9-9|-9-9-9-9-9-9-900|-4-4-4-4-4-4-400|-4-4-4-4-4-4-4-4|
E-7-7-7-7-7-7-7-7|-7-7-7-7-7-7-700|-2-2-2-2-2-2-200|----------------|
But I still have faith,    if I ever had faith.           Wait for me, 
                                                let ring
e----------------|---------------|--------------|--------------|-----------|
B----------------|---------------|--------------|--------------|-----------|
G----------------|---------------|--------------|--------------|-----------|
D-6-6-6-6-6-6-6-6|----------9-9--|---------9-9--|---------9-9--|-----------|
A-4-4-4-4-4-4-4-4|-9-9-9----7-7-0|9-9-9----7-700|9-9-9----7-7-0|-9-FEEDBACK|
E----------------|-7-7-7--------0|7-7-7-------00|7-7-7--------0|-7---------|
  wait for        MEEEEEEEEEEEEEE


Main Riffx2
verse1
solo1
verse2
chorus
solo2
verse3
chorus/outro

*if you have any corrections, leave em in the comments or email me ar gr99sky@hotmail.com
Tap to rate this tab
 
# A B C D E F G H I J K L M N O P Q R S T U V W X Y Z