Song name
# A B C D E F G H I J K L M N O P Q R S T U V W X Y Z

The Thermals - I Hold The Sound chords

Main Verse (majority of the song)
e---------------------------------------|
B---------------------------------------|
G-5----9----12--------------------------|
D-5x8--9x8--12x16-----------------------|
A-3----7----10--------------------------|
E---------------------------------------|

Chorus/Transition part (I hold you...I hold the sound...)
e---------------------------------------|
B---------------------------------------|
G-7----9----12--------------------------|
D-7x13-9x3--12x16-----------------------|
A-5----7----10--------------------------|
E---------------------------------------|

End
e------------------------------------------------------------|
B------------------------------------------------------------|
G------------------------------------------------------------|
D------------------------------------------------------------|
A-----7-----7-------8-----8-------7-----7-------8-----8------|
E-8-8---8-8---8-7-7---7-7---7-8-8---8-8---8-7-7---7-7---7----|

e------------------------------|
B------------------------------|
G------------------------------|
D------------------------------|
A-----7-----7-------5-----5----|
E-5-5---5-5---5-3-3---3-3---3--|

e------------------------------------------------------------|
B------------------------------------------------------------|
G------------------------------------------------------------|
D------------------------------------------------------------|
A-----7-----7-------8-----8-------7-----7-------8-----8------|
E-8-8---8-8---8-7-7---7-7---7-8-8---8-8---8-7-7---7-7---7----|


e-----------------------------------------------------------------------|
B-----------------------------------------------------------------------|
G-----------------------------------------------------------------------|
D-----------------------------------------------------------------------|
A-----7-----7-------5-----5---[-----3-----3--]-<<-repeat until end------|
E-5-5---5-5---5-3-3---3-3---3-[-1-1---1-1---1]--------------------------|
Tap to rate this tab
# A B C D E F G H I J K L M N O P Q R S T U V W X Y Z