Song name
# A B C D E F G H I J K L M N O P Q R S T U V W X Y Z

The Thermals - You Dissolve tab

-------------------------------------------------------------------------------
			     YOU DISSOLVE - The Thermals
-------------------------------------------------------------------------------
Tabbed by: braindeadrebel

Tuning: standard

Main riff

e|---7-7-7-7---0-0----2-2-2-2---0-0--------|
B|---7-7-7-7---0-0----2-2-2-2---0-0--------|
G|---8-8-8-8---1-1----3-3-3-3---1-1--------|      x2
D|---9-9-9-9---2-2----4-4-4-4---2-2--------|
A|---9-9-9-9---2-2----4-4-4-4---2-2--------|
E|---7-7-7-7---0-0----2-2-2-2---0-0--------|

e|---7-7-7-7---0-0----2-2-2-2---7-7--------|
B|---7-7-7-7---0-0----2-2-2-2---7-7--------|
G|---8-8-8-8---1-1----3-3-3-3---8-8--------|
D|---9-9-9-9---2-2----4-4-4-4---9-9--------|
A|---9-9-9-9---2-2----4-4-4-4---9-9--------|
E|---7-7-7-7---0-0----2-2-2-2---7-7--------|

e|---0--0--0-0----2--2--2-2---0--0--0-0---2--2--2-2--2--2--2-2------|
B|---0--0--0-0----2--2--2-2---0--0--0-0---2--2--2-2--2--2--2-2------|
G|---1--1--1-1----3--3--3-3---1--1--1-1---3--3--3-3--3--3--3-3------|
D|---2--2--2-2----4--4--4-4---2--2--2-2---4--4--4-4--4--4--4-4------|
A|---2--2--2-2----4--4--4-4---2--2--2-2---4--4--4-4--4--4--4-4------|
E|---0--0--0-0----2--2--2-2---0--0--0-0---2--2--2-2--2--2--2-2------|


Bridge

e|---5-5-5-5---7-7----2-2-2-2---0-0--------|
B|---5-5-5-5---7-7----2-2-2-2---0-0--------|
G|---6-6-6-6---8-8----3-3-3-3---1-1--------|      x2
D|---7-7-7-7---9-9----4-4-4-4---2-2--------|
A|---7-7-7-7---9-9----4-4-4-4---2-2--------|
E|---5-5-5-5---7-7----2-2-2-2---0-0--------|

e|---5-5-5-5---7-7----2-2-2-2---7-7--------|
B|---5-5-5-5---7-7----2-2-2-2---7-7--------|
G|---6-6-6-6---8-8----3-3-3-3---8-8--------|
D|---7-7-7-7---9-9----4-4-4-4---9-9--------|
A|---7-7-7-7---9-9----4-4-4-4---9-9--------|
E|---5-5-5-5---7-7----2-2-2-2---7-7--------|

e|---0--0--0-0----2--2--2-2---0--0--0-0---2--2--2-2--2--2--2-2------|
B|---0--0--0-0----2--2--2-2---0--0--0-0---2--2--2-2--2--2--2-2------|
G|---1--1--1-1----3--3--3-3---1--1--1-1---3--3--3-3--3--3--3-3------|
D|---2--2--2-2----4--4--4-4---2--2--2-2---4--4--4-4--4--4--4-4------|
A|---2--2--2-2----4--4--4-4---2--2--2-2---4--4--4-4--4--4--4-4------|
E|---0--0--0-0----2--2--2-2---0--0--0-0---2--2--2-2--2--2--2-2------|


I think that should be pretty much it.  It's very easy to play and a lot of fun, because 
Thermals are awesome like that.
Tap to rate this tab
# A B C D E F G H I J K L M N O P Q R S T U V W X Y Z