The Thermals - Never Listen To Me tab

Never Listen to Me

Intro

Bass
E-E-E-E-E-E-E A-A-A-A-A-A-A B-B-B-B-B-B-B-B-B-B-B-B-B-B

G-----------------------------------|
D-----------------------------------|
A-/77777777-------------------------|
E------------5555555-7777777777777--|


Guitar fade in starts at 0:08 or so
e----------------------------------------------------------------------------|
B----------------------------------------------------------------------------|
G----------------------------------------------------------------------------|
D--9/11------9/11-11-11\9----------------------------------------------------|
A-------9/11--------------9/11\9---------------------------------------------|
E----------------------------------------------------------------------------|

Verse with just bass until 0:42 then:
e-------------------------------------------------------------------------------|
B-------------------------------------------------------------------------------|
G-------------------------------------------------------------------------------|
D-------------------------------------------------------------------------------|
A-------------------------------------------------------------------------------|
E--02/4-4-4-4-4-4-2--02/4-4-4-4-4-4-0--02/4-4-4-4-4-4-4-4-4-4-4-4-2-2-2-0-------|


Back to another verse with just bass then the above guitar interlude

Until 1:26 then some noodling:
     BB C# D#  E F# E  D#        B C# C# C# F# G# F#
e-------------------------------------------------------------------|
B-------------------------------------------------------------------|
G----------10-11-13-11-10-11-10-------------------------------------|
D----99-11----------------------9 Ring-9-11-11-11-9-----------------|
A--11------------------------------------------------9-11-9---------|
E-------------------------------------------------------------------|

until 1:54 then some power chords:
e---------------------------0-|
B---------------------------0-|
G---------------------------8-|
D--7---2---6--66-7---2---9--9-|
A--7---2---6--66-7---2---9----|
E--5---0---4--44-5---0---7----|

Punk Rock chord progression at 2:10
e-------------------------------|
B-------------------------------|
G---5---------------------------|
D---5-x8----5-----11-----7------|
A---7-------5-x8--11-x8--7-x8---|
E-----------7-----9------5------|

Repeat as needed!

fueled_by_feces@yahoo.com
Tap to rate this tab
 
# A B C D E F G H I J K L M N O P Q R S T U V W X Y Z