Song name
# A B C D E F G H I J K L M N O P Q R S T U V W X Y Z

The Thermals - Your Love Is So Strong tab

Hey this is my second tab, but i'm sure it's 100%

plz rate!

Standart tuning: (EADGBe)
Listen to song for strumming pattern.


intro:        "Oh Oh-wee-oh-oh Oh-Oh-wee-oh"

e|-----x------6------6------7------6------6------6------7------6--------------|
B|-----6------7------6------7------6------7------6------7------6--------------|
G|-----7-(4x)-8-(8x)-6-(4x)-8-(8x)-6-(4x)-8-(8x)-6-(4x)-8-(8x)-6-(4x)----(3x)-|
D|-----8------8------8------9------8------8------8------9------8------11------|
A|-----x------6------8------9------8------6------8------9------8------11------|
E|-----6-------------6------7------6-------------6------7------6------9-------|



Chorus:        "Oh Oh-wee-oh-oh Oh-Oh-wee-oh"

e|----|-------------------|-------------------------------|
B|----|-------------------|-------------------------------|
G|----|-------------------|-------------------------------|
D|----|-4-4-4-11-8-8-8-11-|-(2x)-4-(let ring)-------------|
A|----|-4-4-4-11-8-8-8-11-|------4------------------------|
E|----|-2-2-2-9--6-6-6-9--|------2------------------------|

Verse Solo:

e|------------------------------------------|
B|------------------------------------------|
G|------------------------------------------|
D|-------------------------------------(2x)-|
A|----------8h9-8-------------8h9-8---------|
E|---2------------9------6------------------|

Pre-Chorus:

e|-----x------6------6------7--------------|
B|-----6------7------6------7--------------|
G|-----7-(4x)-8-(8x)-6-(4x)-8-(8x)---------|
D|-----8------8------8------9------11-(2x)-|
A|-----x------6------8------9------11------|
E|-----6-------------6------7------9-------|

Chorus:        "Oh Oh-wee-oh-oh Oh-Oh-wee-oh"

e|----|-------------------|-------------------|
B|----|-------------------|-------------------|
G|----|-------------------|-------------------|
D|----|-4-4-4-11-8-8-8-11-|-(2x)-4------------|(let ring)
A|----|-4-4-4-11-8-8-8-11-|------4------------|
E|----|-2-2-2-9--6-6-6-9--|------2------------|

Verse Solo:

e|--------------------------------------------|
B|--------------------------------------------|
G|--------------------------------------------|
D|-----------------------------------(2x)-----|
A|----------8h9-8-------------8h9-8-------/13-|
E|---2------------9------6--------------------|

Pre-Chorus:

e|-----x------6------6------7--------------6------7--------------|
B|-----6------7------6------7--------------6------7--------------|
G|-----7-(4x)-8-(8x)-6-(4x)-8-(8x)---------6-(4x)-8-(8x)---------|
D|-----8------8------8------9------11-(8x)-8------9------11-(8x)-|
A|-----x------6------8------9------11------8------9------11------|
E|-----6-------------6------7------9-------6------7------9-------|

Chorus:        "Oh Oh-wee-oh-oh Oh-Oh-wee-oh"

e|----|-------------------|------------------|
B|----|-------------------|------------------|
G|----|-------------------|------------------|
D|----|-4-4-4-11-8-8-8-11-|-(4x)-------------|
A|----|-4-4-4-11-8-8-8-11-|------------------|
E|----|-2-2-2-9--6-6-6-9--|------------------|

Outro:

e|-----x------6------6------7------------------------------|
B|-----6------7------6------7------------------------------|
G|-----7-(4x)-8-(8x)-6-(4x)-8-(8x)-------------------------|
D|-----8------8------8------9------11-(8x)-4-(let ring)----|
A|-----x------6------8------9------11------4---------------|
E|-----6-------------6------7------9-------2---------------|
Tap to rate this tab
 
# A B C D E F G H I J K L M N O P Q R S T U V W X Y Z