Song name
# A B C D E F G H I J K L M N O P Q R S T U V W X Y Z

The Thermals - Not Like Any Other Feeling tab

Artist : The Thermals
Song : Not Like Any Other Feeling

Intro/Verse:

e|---6-----4-------1---------|
B|-7---7/6---(6)-1---1---2---|
G|---------------------3-----|
D|---------------------------|
A|---------------------------|
E|---------------------------|

e|---6-----4-------8---8-(8)-|
B|-7---7/6---(6)-9---9-------|
G|---------------------------|
D|---------------------------|
A|---------------------------|
E|---------------------------|


Chords :

e|---------------------|
B|---------------------|
G|--3-----10-----5-----|
D|--4-----11-----6-----|
A|--4-----11-----6-----|
E|--2-----9------4-----|
Tap to rate this tab
 
# A B C D E F G H I J K L M N O P Q R S T U V W X Y Z