Song name
# A B C D E F G H I J K L M N O P Q R S T U V W X Y Z

The Thermals - Returning To The Fold tab

-------------------------------------------------------------------------------
			     The Thermals - Returning to the Fold
-------------------------------------------------------------------------------
Tabbed by: Simon Wiener
Email: simonwiener@gmail.com

Tuning: standard

Great song, great album, awesome band!
I'm just tabbing chords; listen to the song to get the rhythm right.

Main Riff:

e|---------------------------------------------------------------------------|
B|---------------------------------------------------------------------------|
G|---------------------------------------------------------------------------|
D|9-9-9--2-2-2-9-9-9--11-11-11-6-6-6--4-4-4-0-0-0-0-0-0-0-0------------------|
A|9-9-9--2-2-2-9-9-9--11-11-11-6-6-6--4-4-4-0-0-0-0-0-0-0-0------------------|
E|7-7-7--0-0-0-7-7-7--9--9--9--4-4-4--2-2-2-2-2-2-2-2-2-2-2------------------|x4

Then Interlude 1 over Main Riff:

e|---------------------------------------------------------------------------|
B|---------------------------------------------------------------------------|
G|---------------------------------------------------------------------------|
D|---------------------------------------------------------------------------|
A|---------------------------------------------------------------------------|
E|7-7-7-7-7-9-4\2-2-7-7-4\2-2------------------------------------------------|
I know, this should be higher...

Then Main Riff again:

e|---------------------------------------------------------------------------|
B|---------------------------------------------------------------------------|
G|---------------------------------------------------------------------------|
D|9-9-9--2-2-2-9-9-9--9--9--9--6-6-6--4-4-4-0-0-0-0-0-0-0-0------------------|
A|9-9-9--2-2-2-9-9-9--9--9--9--6-6-6--4-4-4-0-0-0-0-0-0-0-0------------------|
E|7-7-7--0-0-0-7-7-7--11-11-11-4-4-4--2-2-2-2-2-2-2-2-2-2-2------------------|x2

Then Interlude 2:

e|---------------------------------------------------------------------------|
B|---------------------------------------------------------------------------|
G|---------------------------------------------------------------------------|
D|2-4-9-9-9-9-9-9-9-9-9-9-9-9-9-9-9-9-4-4-4-4-4-4-4-4-11-11-11-11-11-11-11-11|
A|2-4-9-9-9-9-9-9-9-9-9-9-9-9-9-9-9-9-4-4-4-4-4-4-4-4-11-11-11-11-11-11-11-11|
E|0-2-7-7-7-7-7-7-7-7-7-7-7-7-7-7-7-7-2-2-2-2-2-2-2-2-9--9--9--9--9--9--9--9-|x2

Then Interlude 3 - sort of like Interlude 1, but different...I can't figure it out.

Then Main Riff:

e|---------------------------------------------------------------------------|
B|---------------------------------------------------------------------------|
G|---------------------------------------------------------------------------|
D|9-9-9--2-2-2-9-9-9--11-11-11-6-6-6--4-4-4-0-0-0-0-0-0-0-0------------------|
A|9-9-9--2-2-2-9-9-9--11-11-11-6-6-6--4-4-4-0-0-0-0-0-0-0-0------------------|
E|7-7-7--0-0-0-7-7-7--9--9--9--4-4-4--2-2-2-2-2-2-2-2-2-2-2------------------|x2

Then Interlude 2:

e|---------------------------------------------------------------------------|
B|---------------------------------------------------------------------------|
G|---------------------------------------------------------------------------|
D|2-4-9-9-9-9-9-9-9-9-9-9-9-9-9-9-9-9-4-4-4-4-4-4-4-4-11-11-11-11-11-11-11-11|
A|2-4-9-9-9-9-9-9-9-9-9-9-9-9-9-9-9-9-4-4-4-4-4-4-4-4-11-11-11-11-11-11-11-11|
E|0-2-7-7-7-7-7-7-7-7-7-7-7-7-7-7-7-7-2-2-2-2-2-2-2-2-9--9--9--9--9--9--9--9-|x3

And add this:

e|---------------------------------------------------------------------------|
B|---------------------------------------------------------------------------|
G|---------------------------------------------------------------------------|
D|11-11-11-11-11-11-11-11----------------------------------------------------|
A|11-11-11-11-11-11-11-11----------------------------------------------------|
E|9--9--9--9--9--9--9--9-----------------------------------------------------|

Then Outro

e|---------------------------------------------------------------------------|
B|---------------------------------------------------------------------------|
G|---------------------------------------------------------------------------|
D|9-9-9--2-2-2-9-9-9--2-2-2-9-9-9--2-2-2-9-fade out...-----------------------|
A|9-9-9--2-2-2-9-9-9--2-2-2-9-9-9--2-2-2-9-----------------------------------|
E|7-7-7--0-0-0-7-7-7--0-0-0-7-7-7--0-0-0-7-----------------------------------|


| /  slide up
| \  slide down
| h  hammer-on
| p  pull-off
| ~  vibrato
| +  harmonic
| x  Mute note
===============================================================================
Tap to rate this tab
# A B C D E F G H I J K L M N O P Q R S T U V W X Y Z