Song name
# A B C D E F G H I J K L M N O P Q R S T U V W X Y Z

The Thermals - Heres Your Future tab

Here's Your Future, by The Thermals
----------------------------------------
Tabbed by Sal van Wezel
----------------------------------------

Intro (Organ plays a E chord)
Guitar 1	                              ||   Guitar 2 (singer)
| E      | E      | E      | E      | ||
| E      | E      | E      | E      | ||
| C#m G# | A   F# | E      | E      | ||
| E      | E      | E      | E      | ||
| C#m G# | A   F# | E      | E      | ||
| C#m G# | A   F# | E      | E      | ||
                                      ||
| E      | E      | E      | E      | ||
| C#m G# | A   F# | E      | E      | || 
| C#m G# | A   F# | E      | E      | ||  | C#m G# | A   F# | E      | E      |
                                      ||
| E      | E      | E      | E      | ||  | E      | E      | E      | E      |
| C#m G# | A   F# | E      | E      | ||  | C#m G# | A   F# | E      | E      |
| C#m G# | A   F# | E      | E      | ||  | C#m G# | A   F# | E      | E      |
                                      ||
| E      | E      | E      | E      | ||  | E      | E      | E      | E      |
| C#m G# | A   F# | E      | E      | ||  | C#m G# | A   F# | E      | E      |
| C#m G# | A   F# | E      | E      | ||  | C#m G# | A   F# | E      | E      | 
| E      | E      | C#m G# | A   F# | ||  | E      | E      | -      | -      |
| C#m G# | A   F# | C#m G# | A   F# | ||  | -      | -      | -      | -      |
| C#m G# | A   F# | -      | -      | ||  | -      | -      | Solo   | Solo   | (see below)
| C#m G# | A   F# | E      | E      | ||  | Solo   | Solo   | Solo   | Solo   |
| C#m G# | A   F# | E      | E      | ||  | Solo   | Solo   | Solo   | Solo   |
| C#m G# | A   F# | E      | E      | ||  | Solo   | Solo   | Solo   | Solo   |
| C#m G# | A   F# | E      | E      | ||  | Solo   | Solo   | Solo   | Solo   |
| C#m G# | A   F# | E      | E      | ||  | Solo   | Solo   | Solo   | Solo   |
| C#m G# | A   F# | E      | E      |
| E      | E      | E      | E      |
| C#m G# | A   F# |

Solo

e|--------|-----------------------|
B|--------|5-----5-----5-----5----|
G|88888888|8^(9)-8^(9)-8^(9)-8^(9)|
D|--------|-----------------------|
A|66666666|-----------------------|
E|--------|-----------------------|

e|------------------|-----------------|0----|-0-----0----|
B|5-----5-----------|5-----5----------|0----|-0-----0----|
G|8^(9)-8^(9)-8-6-6-|8^(9)-8^(9)-8-6-6|4----|-1/(2)/3----|
D|------------------|-----------------|-----|------------|
A|------------------|-----------------|-----|------------|
E|------------------|-----------------|-----|------------|

e|------------------|-----------------|0----|-0-----0----|
B|------5-----------|5-----5----------|0----|-0-----0----|
G|------8^(9)-8-6-6-|8^(9)-8^(9)-8-6-6|4----|-1/(2)/3----|
D|------------------|-----------------|-----|------------|
A|------------------|-----------------|-----|------------|
E|------------------|-----------------|-----|------------|

e|---------------------------|---------------------------------|--------|----|
B|---------9-------9-------9-|------9-------9-------9--------9-|--------|----|
G|----11^(13)-11^(13)-11^(13)|-11^(13)-11^(13)-11^(13)-11^(13)-|-11-9-9-|----|
D|---------------------------|---------------------------------|--------|----|
A|---------------------------|---------------------------------|--------|----|
E|---------------------------|---------------------------------|--------|----|

e|-------------------------|-----------------------------|--------|---------|
B|----------9------------9-|-----------9-------9-------9-|--------|---------|
G|-----11^(13)-11-9-11^(13)|-11-9-11^(13)-11^(13)-11^(13)|-11-9-9-|---------|
D|-------------------------|-----------------------------|--------|---------|
A|-------------------------|-----------------------------|--------|---------|
E|-------------------------|-----------------------------|--------|---------|

e|------------------------|------14^(16)-14^(16)-14^(16)-|-14-12-12-|--14^(16)(14)-12-|
B|------14^(16)-14-12-12--|------------------------------|----------|-----------------|
G|------------------------|------------------------------|----------|-----------------|
D|------------------------|------------------------------|----------|-----------------|
A|------------------------|------------------------------|----------|-----------------|
E|------------------------|------------------------------|----------|-----------------|

e|------------------------|------14^(16)-14^(16)-14^(16)-|-(14)-12~~|~~~~~~~~~~~~~~~~~|
B|------14^(16)-14-12-12--|------------------------------|----------|-----------------|
G|------------------------|------------------------------|----------|-----------------|
D|------------------------|------------------------------|----------|-----------------|
A|------------------------|------------------------------|----------|-----------------|
E|------------------------|------------------------------|----------|-----------------|

Lyrics

God reached his hand down from the sky
He flooded the land then he set it on fire
He said, "Fear me again. No, I'm your father.
Remember that no one can breathe underwater"

So bend your knees and bow your heads
Save your babies, here's your future
Yeah, here's your future

God reached his hand down from the sky
God asked Noah if he wanted to die
He said no sir
Oh, no, sir

God said here's your future
It's going to rain
So we're packing our things
We're building a boat
Where God will create the new master race
Cause we're so pure
Oh, we're so pure
So here's your future

God told his son it's time to come home
I promise you won't have to die all alone
I need you to pay for the sins I create
His son said, "I will but Dad, I'm afriad"

Yeah, so here's your future
Here's your future
Yeah, here's your future
So here's your future
So here's your future
So here's your future
Tap to rate this tab
 
# A B C D E F G H I J K L M N O P Q R S T U V W X Y Z