Song name
# A B C D E F G H I J K L M N O P Q R S T U V W X Y Z

The Throne - Niggas In Paris tab

This could be listed under the collaborative name for the artist, The Throne or Jay-Z or 
Kanye West or all three.

The entire song is basically one part and sounds best with two guitars.

Guitar I
e-------------8-|
B-6--9--8--6----|
G--5--5--5--5---|
D---------------|
A---------------|
E---------------|

Guitar II
e-1--4--3---1---|
B-1--4--3---1---|
G-2--5--4---2---|
D-3--6--5---3---|
A-3--6--5---3---|
E-1--4--3---1---|

Slightly different verse (Played the last time Jay Z says 'That shit Kray' right before 
Kanye's 'married at the mall' verse
Guitar I
e---------------|
B-6--9--8-------|
G--5--5--5------|
D---------------|
A---------------|
E---------------|

Guitar II
e-1--4--3-------|
B-1--4--3-------|
G-2--5--4-------|
D-3--6--5-------|
A-3--6--5-------|
E-1--4--3-------|

Static-y ending chords
C#m X46654
Bbm 688666
Fm  133111
Eb  x68866


Hey U-G, here's a link to the website to prove legitimacy http://watchthethrone.com/  
I'm sure you're aware of the collaboration but labeling it as an artist is kinda weird. 
Both The Throne as well as  Jay-Z & Kanye West have been used.
Tap to rate this tab
 
# A B C D E F G H I J K L M N O P Q R S T U V W X Y Z