Song name
# A B C D E F G H I J K L M N O P Q R S T U V W X Y Z

The Thunderlords - I Like Dirt tab

-------------------------------------------------------------------------------
			     I LIKE DIRT - The Thunderlords
-------------------------------------------------------------------------------
Tabbed by: Chris and Veronica
Email: critter0214@yahoo.com

Tuning: Standard

Verse: 
e|---------------------------------------------------------------------------|
B|---------------------------------------------------------------------------|
G|---------------------------------------------------------------------------|
D|--3-2-2-2-x-x-x------------------------------------------------------------|
A|--3-2-2-2-x-x-x------------------------------------------------------------|
E|--1-0-0-0-x-x-x------------------------------------------------------------|

Chrous:
e|---------------------------------------------------------------------------|
B|---------------------------------------------------------------------------|
G|----------4----------------------------------------------------------------|
D|--3-2-2-2-4-2-2-3-2-2------------------------------------------------------|
A|--3-2-2-2-2-2-2-3-2-2------------------------------------------------------|
E|--1-0-0-0---0-0-1-0-0------------------------------------------------------|

| /  slide up
| \  slide down
| h  hammer-on
| p  pull-off
| ~  vibrato
| +  harmonic
| x  Mute note
===============================================================================
Tap to rate this tab
# A B C D E F G H I J K L M N O P Q R S T U V W X Y Z