Song name
# A B C D E F G H I J K L M N O P Q R S T U V W X Y Z

The Timeout Drawer - The Exorcist tab

-------------------------------------------------------------------------------
                       THE EXORCIST - The Timeout Drawer
-------------------------------------------------------------------------------
tabbed by: jahu
email: bueee@o2.pl

tuning: standard (EADGBe)


this song is very easy if you can handle the sick time signature.

it's 7/8 + 8/8.


figure A
palm muted

e|-----------------------------|---------------------------------|
B|-----------------------------|---------------------------------|
G|-----------------------------|---------------------------------|
D|-----------------------------|---------------------------------|
A|-3---5---2-3-------2---------|-3---5---2-3---2-------2---------|
E|---------------5-------3-5---|-------------------5-------3-5---|

                                               ^ guitar enters
figure B                                        at this note (0:40)
heavy distortion (kicks in at 1:10)

e|------------------------------|----------------------------------|
B|------------------------------|----------------------------------|
G|------------------------------|----------------------------------|
D|------------------------------|----------------------------------|
A|------------------------------|----------------------------------|
E|-8-0-10-0-7-8-0-5-0-7-0-3-5-0-|-8-0-10-0-7-8-0-7-0-5-0-7-0-3-5-0-|


figure C (2:15-end)
this is kinda simple
palm mute again + distortion

e|-----------------------------|---------------------------------|
B|-----------------------------|---------------------------------|
G|-----------------------------|---------------------------------|
D|-----------------------------|---------------------------------|
A|-----------------------------|---------------------------------|
E|-0-0-0-0-0-0-0-0-0-0-0-0-0-0-|-0-0-0-0-0-0-0-0-0-0-0-0-0-0-0-0-|


that's it, I guess. you can also make a lot of noise in the middle of the song,
instead of playing the same thing over and over.

http://www.timeoutdrawer.com/
http://www.myspace.com/timeoutdrawer

===============================================================================
Tap to rate this tab
# A B C D E F G H I J K L M N O P Q R S T U V W X Y Z