Song name
# A B C D E F G H I J K L M N O P Q R S T U V W X Y Z

The Times - Picagari tab

Artist : The Times
Title : Picagari
Album : NadaMelankolikMalaya

Tabbed by MaTt (undead_x@hotmail.com)

Standard Tuning

s = slide
b = bend
r = release
h = hammer-on


..::Lead Guitar::..

[Intro]

e|----------------------------------------------------------------|
b|----------------------------------------------------------------|
g|----------------7-5---4---2-----4---------------7-5---4---2---4s|
d|5------------5s7-----------------------------5s7----------------|
a|----------------------------------------------------------------|
e|----------------------------------------------------------------|
  1 + 2 + 3 + 4 + 1 + 2 + 3 + 4 + 1 + 2 + 3 + 4 + 1 + 2 + 3 + 4 + 

e|----------------------------------------------------------------|
b|----------------------------------------------------------------|
g|5---------------7-5---4---2---4s5-------4-------2-------2s4-----|
d|-------------5s7------------------------------------------------|
a|----------------------------------------------------------------|
e|----------------------------------------------------------------|
  1 + 2 + 3 + 4 + 1 + 2 + 3 + 4 + 1 + 2 + 3 + 4 + 1 + 2 + 3 + 4 + 

e|----------------------------------------------------------------|
b|----------------------------------------------------------------|
g|----------------7-5---4---2----4b5r4------------7-5---4---2---4s|
d|5------------5s7-----------------------------5s7----------------|
a|----------------------------------------------------------------|
e|----------------------------------------------------------------|
  1 + 2 + 3 + 4 + 1 + 2 + 3 + 4 + 1 + 2 + 3 + 4 + 1 + 2 + 3 + 4 + 

e|----------------------------------------------------------------|
b|----------------------------------------------------------------|
g|5---------------7-5---4---2---4s5-------4-------2-------2s4-----|
d|-------------5s7------------------------------------------------|
a|----------------------------------------------------------------|
e|----------------------------------------------------------------|
  1 + 2 + 3 + 4 + 1 + 2 + 3 + 4 + 1 + 2 + 3 + 4 + 1 + 2 + 3 + 4 + 

e|----------------|
b|----------------|
g|----------------|
d|5~--------------|
a|----------------|
e|----------------|
  1 + 2 + 3 + 4 + 


[Verse] -Strum/Let Ring-

e|3-------------------------------2-------------------------------|
b|3-----3-------------------------3-----3-------------------------|
g|4---------4---------------------2---------4---------------------|
d|5-------------------------------4-------------------------------|
a|5-------------------------------2-------------------------------|
e|3---------------------------------------------------------------|
  1 + 2 + 3 + 4 + 1 + 2 + 3 + 4 + 1 + 2 + 3 + 4 + 1 + 2 + 3 + 4 + 

e|0-------------------------------0---------------2---------------|
b|1-----1-------------------------1-----1---------3-----3---------|
g|0---------0---------------------0---------0-----2---------2-----|
d|2-------------------------------2---------------0---------------|
a|0-------------------------------3-------------------------------|
e|----------------------------------------------------------------|
  1 + 2 + 3 + 4 + 1 + 2 + 3 + 4 + 1 + 2 + 3 + 4 + 1 + 2 + 3 + 4 + 

e|3-------------------------------2-------------------------------|
b|3-----3-------------------------3-----3-------------------------|
g|4---------4---------------------2---------4---------------------|
d|5-------------------------------4-------------------------------|
a|5-------------------------------2-------------------------------|
e|3---------------------------------------------------------------|
  1 + 2 + 3 + 4 + 1 + 2 + 3 + 4 + 1 + 2 + 3 + 4 + 1 + 2 + 3 + 4 + 

e|0-------------------------------0---------------2---------------|
b|1-----1-------------------------1-----1---------3-----3---------|
g|0---------0---------------------0---------0-----2---------2-----|
d|2-------------------------------2---------------0---------------|
a|0-------------------------------3-------------------------------|
e|----------------------------------------------------------------|
  1 + 2 + 3 + 4 + 1 + 2 + 3 + 4 + 1 + 2 + 3 + 4 + 1 + 2 + 3 + 4 + 


[Pre-Chorus] -Strum/Let Ring-


e|0-------------------------------2-----2-------------------------|
b|0-------------------------------3---------3---------------------|
g|0-------------------------------4-------------4-----------------|
d|2-------------------------------4-------------------------------|
a|2-------------------------------2-------------------------------|
e|0---------------------------------------------------------------|
  1 + 2 + 3 + 4 + 1 + 2 + 3 + 4 + 1 + 2 + 3 + 4 + 1 + 2 + 3 + 4 + 

e|0-------------------------------0---------------2-----2---------|
b|1---------------3-1-0-----------1-----1---------3---------3-----|
g|0---------------------0---------0---------0-----2---------------|
d|2-------------------------------2---------------0---------------|
a|0-------------------------------3-------------------------------|
e|----------------------------------------------------------------|
  1 + 2 + 3 + 4 + 1 + 2 + 3 + 4 + 1 + 2 + 3 + 4 + 1 + 2 + 3 + 4 + 

e|0-------------------------------2-----2-------------------------|
b|0-------------------------------3---------3---------------------|
g|0-------------------------------4-------------4-----------------|
d|2-------------------------------4-------------------------------|
a|2-------------------------------2-------------------------------|
e|0---------------------------------------------------------------|
  1 + 2 + 3 + 4 + 1 + 2 + 3 + 4 + 1 + 2 + 3 + 4 + 1 + 2 + 3 + 4 + 

e|0-------------------------------0---------------2-----2---------|
b|1---------------3-1-0-----------1-----1---------3---------3-----|
g|0---------------------0---------0---------0-----2---------------|
d|2-------------------------------2---------------0---------------|
a|0-------------------------------3-------------------------------|
e|----------------------------------------------------------------|
  1 + 2 + 3 + 4 + 1 + 2 + 3 + 4 + 1 + 2 + 3 + 4 + 1 + 2 + 3 + 4 + 


[Chorus]


e|----------------------------------------------------------------|
b|7---8---7---8---7---8-7---8-7-8-7---8---7---8---7---8-7---8-7-8-|
g|----------------------------------------------------------------|
d|----------------------------------------------------------------|
a|----------------------------------------------------------------|
e|----------------------------------------------------------------|
  1 + 2 + 3 + 4 + 1 + 2 + 3 + 4 + 1 + 2 + 3 + 4 + 1 + 2 + 3 + 4 + 

e|--------------8---7-------------8---7---------8---7-------------|
b|7---8---7-------------8-----------------8-------------8-------8-|
g|------------7-------------7h9-7-------------7-------------7h9---|
d|----------------------------------------------------------------|
a|----------------------------------------------------------------|
e|----------------------------------------------------------------|
  1 + 2 + 3 + 4 + 1 + 2 + 3 + 4 + 1 + 2 + 3 + 4 + 1 + 2 + 3 + 4 + 

e|----------------------------------------------------------------|
b|7---8---7---8---7---8-7---8-7-8-7---8---7---8---7---8-7---8-7-8-|
g|----------------------------------------------------------------|
d|----------------------------------------------------------------|
a|----------------------------------------------------------------|
e|----------------------------------------------------------------|
  1 + 2 + 3 + 4 + 1 + 2 + 3 + 4 + 1 + 2 + 3 + 4 + 1 + 2 + 3 + 4 + 

e|--------------8---7-------------8---7---------8---7-------------|
b|7---8---7-------------8-----------------8-------------8---------|
g|------------7-------------7h9-7-------------7-------------7h9---|
d|----------------------------------------------------------------|
a|----------------------------------------------------------------|
e|----------------------------------------------------------------|
  1 + 2 + 3 + 4 + 1 + 2 + 3 + 4 + 1 + 2 + 3 + 4 + 1 + 2 + 3 + 4 + 


[Guitar Solo]


e|----------------------------------------------------------------|
b|8---------------8-7-----------------------------8-7-------------|
g|----------------------7---5----4b5r4------------------7---5---4s|
d|----------------------------------------------------------------|
a|----------------------------------------------------------------|
e|----------------------------------------------------------------|
  1 + 2 + 3 + 4 + 1 + 2 + 3 + 4 + 1 + 2 + 3 + 4 + 1 + 2 + 3 + 4 + 

e|----------------------------------------------------------------|
b|----------------------------------------------------------------|
g|5-------4-------2-------0---2-4s5-------4-------2------2s4------|
d|----------------------------------------------------------------|
a|----------------------------------------------------------------|
e|----------------------------------------------------------------|
  1 + 2 + 3 + 4 + 1 + 2 + 3 + 4 + 1 + 2 + 3 + 4 + 1 + 2 + 3 + 4 + 

e|----------------------------------------------------------------|
b|8---------------8-7-----------------------------8-7-------------|
g|----------------------7---5----4b5r4---4b5r4----------7---5---4s|
d|----------------------------------------------------------------|
a|----------------------------------------------------------------|
e|----------------------------------------------------------------|
  1 + 2 + 3 + 4 + 1 + 2 + 3 + 4 + 1 + 2 + 3 + 4 + 1 + 2 + 3 + 4 + 

e|----------------------------------------------------------------|
b|----------------------------------------------------------------|
g|5-------4-------2-------0---2-4s5-------4-------2------2s4------|
d|----------------------------------------------------------------|
a|----------------------------------------------------------------|
e|----------------------------------------------------------------|
  1 + 2 + 3 + 4 + 1 + 2 + 3 + 4 + 1 + 2 + 3 + 4 + 1 + 2 + 3 + 4 + 


::Repeat Pre-Chorus::

::Repeat Chorus 2x::

::Repeat Guitar Solo:: (Solo lead + Chorus lead)

::Till End::



..::Rhythm Guitar::..

Chord Fingering

- G -  - Bm7 -  - Am7 -  - C -   - D -   - Em -
e|3     e|2      e|0      e|3     e|5     e|0
b|3     b|3      b|1      b|5     b|7     b|0
g|4     g|2      g|0      g|5     g|7     g|0
d|5     d|4      d|2      d|5     d|7     d|2
a|5     a|2      a|0      a|3     a|5     a|2
e|3     e|-      e|-      e|-     e|-     e|0


[Intro] -Chord Strum-

G - G - Bm7 - Bm7
Am7 - Am7 - C - D
G - G - Bm7 - Bm7
Am7 - Am7 - C - D


[Verse] -Chord Strum-

G - G - Bm7 - Bm7
Am7 - Am7 - C - D
G - G - Bm7 - Bm7
Am7 - Am7 - C - D


[Pre-Chorus] -Acoustic Chord Strum-

Em - Em - Bm7 - Bm7
Am7 - Am7 - C - D
Em - Em - Bm7 - Bm7
Am7 - Am7 - C - D


[Chorus] -Chord Strum-

G - G - Bm7 - Bm7
Am7 - Am7 - C - D
G - G - Bm7 - Bm7
Am7 - Am7 - C - D


[Guitar Solo] - Chord Strum-

G - G - Bm7 - Bm7
Am7 - Am7 - C - D
G - G - Bm7 - Bm7
Am7 - Am7 - C - D


::Repeat Pre-Chorus::

::Repeat Chorus 2x::

::Repeat Guitar Solo::

::Till End::


Refer to original song... Please report any mistakes... Enjoy....
Tap to rate this tab
# A B C D E F G H I J K L M N O P Q R S T U V W X Y Z