Song name
# A B C D E F G H I J K L M N O P Q R S T U V W X Y Z

The Times - Ku Takut Kau Hilang tab

Artist : The Times
Title  : Ku Takut Kau Hilang
Tab    : Genuinely by Sub a.k.a myself
any comment jz emel me at megaluqmaniack@yahoo.com
enjoy..!!

intro:


e|--------------------------------------------------------|
B|-----5h6--5---------------------------------------------|
G|-------------5----------5--4--5--7--7/9-----------------|
D|----------------5--5h7----------------------------------|
A|--------------------------------------------------------|
E|--------------------------------------------------------|

e|--------------------------------------------------------|
B|-----5h6--5---------------------------------------------|
G|-------------5----------5--4----------------------------|
D|----------------5--5h7--------5--5h7--5--2-2------------|
A|--------------------------------------------------------|
E|--------------------------------------------------------|

e|-------------------------------------------------------------------------|
B|--5h6--5-----------------------------------------------------------------|
G|----------5----------5--5/7--7--5--4--5--7--7/9--10--10/12--5------------|
D|-------------5--5h7--------------------------------------------5--5h7--5-|
A|-------------------------------------------------------------------------|
E|-------------------------------------------------------------------------|

Verse 1:


F       G         C
  Ku takut kau hilang
F         G          C
  Menjadi bayang - bayang
F       G        Am        G
  Sesat dalam lurah yang gelap
      F     G
  tiada udara


Verse 2:


F       G         C
  Ku takut kau hilang
F        G        C
  dalam ribut taufan
F          G      Am      G
  Entah mengapa cepat berubah
        F        G
  Ternyata kau lemah


Chorus:


            F     G    C
  Madu atau racun namamu
             F     G    C
  Bunuh saja kecil hatiku
                  F      G
  Awan mendung telah berarak
        Am      G       F     G
  Nafas mula segar kurasa dunia

Verse 3:


F      G         C
  Ku takut kau hilang
F       G     C
  Karam di lautan
F         G       Am       G
  Dipukul ombak dihempas badai
        F       G
  hilanglah arahnya


Solo:


e|-----------------------------------------------------------------------|
B|-----13-12-10-8--5-6-8--5-6-6/10-8--5-6-6/10-8------(2x)---------------|
G|-----------------------------------------------------------------------|
D|-----------------------------------------------------------------------|
A|-----------------------------------------------------------------------|
E|-----------------------------------------------------------------------|

e|---------8-7-----10-8-7-8-8/10-----------------------------------------|
B|-----5-6-----5-6---------------8---8-6-5-------------------------------|
G|-----------------------------------------5-4-5-4-4-5-5-5/7-------------|
D|-----------------------------------------------------------------------|
A|-----------------------------------------------------------------------|
E|-----------------------------------------------------------------------|

Repeat Chorus 2x and Verse 1

The end..
Tap to rate this tab
# A B C D E F G H I J K L M N O P Q R S T U V W X Y Z