Song name
# A B C D E F G H I J K L M N O P Q R S T U V W X Y Z

The Times - Sisa-sisa tab

The Times- Sisa-sisa

LEAD

e|-----5-----5-----5-----5-----5---7--5--4-5-4-5-4---5-4---------------|
B|-5-7---5-7---5-7---5-7---5-7---------------------5-----5-------------|
G|---------------------------------------------------------------------|
D|---------------------------------------------------------------------|
A|---------------------------------------------------------------------|
E|---------------------------------------------------------------------|

e|-----5-----5-----5-----5-----5---7--5--4-5/12-10-9-10-9-|
B|-5-7---5-7---5-7---5-7---5-7----------------------------|
G|--------------------------------------------------------|
D|--------------------------------------------------------|
A|--------------------------------------------------------|
E|--------------------------------------------------------|

e|-14----14----14----12-12---------------|
B|----14----14----14-------15-14----12-14|
G|---------------------------------------|
D|---------------------------------------|
A|---------------------------------------|
E|---------------------------------------|

e|-14----14----14----12h-------------|
B|----14----14----14------12bx8------|
G|-----------------------------------|
D|-----------------------------------|
A|-----------------------------------|
E|-----------------------------------|
Tap to rate this tab
# A B C D E F G H I J K L M N O P Q R S T U V W X Y Z