Song name
# A B C D E F G H I J K L M N O P Q R S T U V W X Y Z

The Times - Pesona Algebra tab

Pes0na Algebra- The Times

As accurate and simple as possible from me, Sob SlasH (^_^)
Here it goes...



Intro..... after bass n drum...

e--5-5-5--------5-5-5--------7-7-7--------3-3-3----------|
B--7-7---7------7-7---7------7-7---7------3-3---3--------|
G--7-7-----7----6-6-----6----7-7-----7----4-4------4-----|
D--7-7----------7-7----------9-9----------5-5------------|
A----------------------------9-9----------5-5------------|
E--------------------------------------------------------|
*Ulang beberapa kali....untuk intro dan verse...


Chorus.... Rhytm...ulang setiap kord nie.. Dengar lagu untuk rhytm pattern..

e--5-5-5--------5-5-5--------7-7-7--------3-3-3-------5-5-5-|
B--7-7-7--------7-7-7--------7-7-7--------3-3-3-------5-5-5-|
G--7-7-7--------6-6-6--------7-7-7--------4-4-4-------6-6-6-|
D--7-7-7--------7-7-7--------9-9-9--------5-5-5-------7-7-6-|
A----------------------------9-9-9--------5-5-5-------7-7-6-|
E-----------------------------------------------------------|


Chorus..... Lead... Ulang beberapa kali....

e---14------------------------------|
B------12-14-15---------------------|
G---------------14-12-11------------|
D------------------------14---------|
A-----------------------------------|
E-----------------------------------|

Updated on 31/12/2006
Anything.... e-mail me: sobri3d@yahoo.com
	     myspace: http://www.myspace.com/sobry
Tap to rate this tab
 
# A B C D E F G H I J K L M N O P Q R S T U V W X Y Z