Song name
# A B C D E F G H I J K L M N O P Q R S T U V W X Y Z

The Times - Lagu Bintang tab

Highlighted       Show chord diagrams
Lagu Bintang
The Times



      D             A      Bm               
oh bintang paling jauh ku cuba untuk memetik mu

      D          A        Bm            
semalam ku terjatuh kau dakap walau berdebu

     C            Bm        C         Bm
sejuknya di malam itu musim bunga atau salju

A
bertemu.....


G           D             G          A         
gugurlah bintang langit terang ditaman sepi mimpiku

G       D             G          A
lagu bintang langit terang ditaman sepi mimpiku.....




G-------7-9/11-9-7-------12-11-9-7--12-11-9-7--l
D---7-79----------9----------------------------l   2X


G--7/11-11-11-9-77-99-7--l      l-------l
D------------------------l  2X  l--9-7--l


............................................................................

   Bm          C  

e--2--      e--3--
B--3--      B--5-- 
G--4--      G--5--
D--4--      D--5--
Tap to rate this tab
 
# A B C D E F G H I J K L M N O P Q R S T U V W X Y Z