Song name
# A B C D E F G H I J K L M N O P Q R S T U V W X Y Z

The Times - Infra Merah tab

------7-7-----------7-7------------------------------------------------|
-3-5------5-3--3-5------5-3---3-5--7-7--------------7-7----------------|
---------------------------------------5-4--4-4h5-4-----5-4--4-4h5-4---|
-----------------------------------------------------------------------|
-----------------------------------------------------------------------|
-----------------------------------------------------------------------|


-----------------------------------------------------------------------|
-------8----------------8-----------------9---5-3---------9------------|
-5-7-5------7-6-7-5-7-5-----7-6-7-5h6-6-5---------6-5-7-5--------------|
-----------------------------------------------------------------------|
-----------------------------------------------------------------------|
-----------------------------------------------------------------------|


------7-7-----------7-7------------------------------------------------|
-3-5------5-3--3-5------5-3---3-5--7-7--------------7-7----------------|
---------------------------------------5-4--4-4h5-4-----5-4--4-4h5-4---|
-----------------------------------------------------------------------|
-----------------------------------------------------------------------|
-----------------------------------------------------------------------|


-----------------------------------------------------------------------|
-------8----------------8-----------------9---5-3---------9------------|
-5-7-5------7-6-7-5-7-5-----7-6-7-5h6-6-5---------6-5-7-5--------------|
-----------------------------------------------------------------------|
-----------------------------------------------------------------------|
-----------------------------------------------------------------------|


Intro part of the song Infra Merah by The Times.
Any comment and suggestion you can email me at ijan_hackers@yahoo.com.
Layan...
Tap to rate this tab
# A B C D E F G H I J K L M N O P Q R S T U V W X Y Z