Song name
# A B C D E F G H I J K L M N O P Q R S T U V W X Y Z

The Times - Wilayah Strawberi tab

InTRo

--------------------------------------------|
---5-2-3-5---2-3-5---5-3-5-7-5--------------|
--------------------------------------------|
--------------------------------------------|
--------------------------------------------|
--------------------------------------------|


--------------------------------------------|
--5-2-3-5---2-3-5---7-9-7-5-----------------|
--------------------------------------------|
--------------------------------------------|
--------------------------------------------|
--------------------------------------------|


--------------------------------------------|
--5-2-3-5---2-3-5---5-3-5-7-5---------------|
--------------------------------------------|
--------------------------------------------|
--------------------------------------------|
--------------------------------------------|


-7---5--4-5---------------------------------|
-------------5------------------------------|
--------------------------------------------|
--------------------------------------------|
--------------------------------------------|
--------------------------------------------|


SoLo

--------------------------------------------|
-12--10--9-10-5--10-9-5--10-5---------------|
--------------------------------------------|
--------------------------------------------|
--------------------------------------------|
--------------------------------------------|

--------------------------------------------|
-12--10--9-10-5---2-3-5--2-3----------------|
--------------------------------------------|
--------------------------------------------|
--------------------------------------------|
--------------------------------------------|

--------------------------------------------|
-12--10--9-10-5--10-9-5--10-5---------------|
--------------------------------------------|
--------------------------------------------|
--------------------------------------------|
--------------------------------------------|

--------------------------------------------|
-12--10--9-10-5---2-3-5--2-3----------------|
--------------------------------------------|
--------------------------------------------|
--------------------------------------------|
--------------------------------------------|

-12-12--10-12-11-7---12-12--10-12-11-8------| (Repeat 4 times)
--------------------------------------------|
--------------------------------------------|
--------------------------------------------|
--------------------------------------------|
--------------------------------------------|

-2h13---------------------------------------|
--------------------------------------------|
--------------------------------------------|
--------------------------------------------|
--------------------------------------------|
--------------------------------------------|

Any comment and suggestion you can email me at ijan_hackers@yahoo.com. This is my first 
This only include intro and solo. The verse, chorus you can refer to the other one.
Tap to rate this tab
 
# A B C D E F G H I J K L M N O P Q R S T U V W X Y Z