Song name
# A B C D E F G H I J K L M N O P Q R S T U V W X Y Z

The Times - Disko Dansa tab

tab by harry

INTRO

   D             F#m                  Em            A
e|-5-5-5-5-5-55--9--9--9--9--9--9-9---7-7-7-7-7-77--5-5-5-5-5-55---|
B|-7-7-7-7-7-77--10-10-10-10-10-1010--8-8-8-8-8-88--5-5-5-5-5-55---|
G|-7-7-7-7-7-77--11-11-11-11-11-1111--9-9-9-9-9-99--6-6-6-6-6-66---|
D|-7-7-7-7-7-77--11-11-11-11-11-1111--9-9-9-9-9-99--7-7-7-7-7-77---|
A|-5-5-5-5-5-55--9--9--9--9--9--9-9---7-7-7-7-7-77--7-7-7-7-7-77---|
E|--------------------------------------------------5-5-5-5-5-55---|

BRIDGE

C              Am                   C             Am
-0~------------0~-------------------0~------------0~----------------|
-1~------------1~-------------------1~------------1~----------------|
-0-------------2~-------------------0~------------2~----------------|
-2~------------2~-------------------2~------------2~----------------|
-3~------------0~-------------------3~------------0~----------------|
--------------------------------------------------------------------|


Ending just same as brige but uSed POWER CHORD

 C  Am
-3--5-|
-5--5-|
-5--5-|
-5--7-|
-3--7-|
----5-|


any comment please e-mel me at guerillas_buewaih@yahoo.com

Rock n Roll with The Times
Tap to rate this tab
 
# A B C D E F G H I J K L M N O P Q R S T U V W X Y Z