Guitaretab - guitar tabs
Song name
# A B C D E F G H I J K L M N O P Q R S T U V W X Y Z

The Ting Tings - Thats Not My Name tab

-------------------------------------------------------------------------------
Thatís Not My Name (Acoustic) - The Ting Tingís
-------------------------------------------------------------------------------
Tabbed by: chris
Email: cj_popplewell@hotmail.com

To get the timing you might need to look at the acoustic version of this song on youtube 
there isnít much guitar at the start of the single
any corrections welcome :)

Tuning: Drop D Tuning

| V  Down Strum
| Λ  Upward Strum
| /  slide up
| \  slide down
| h  hammer-on
| p  pull-off
| ~  vibrato
| +  harmonic
| x  Mute note

Intro

e|--------------------------------|
B|--------------------------------|
G|--------------------------------|	x4 (Drum Starts after 1st repeat)
D|--2-x-x-2-x-x-2-0-2-x-x-2-x-2-5-|
A|--2-x-x-2-x-x-2-0-2-x-x-2-x-2-5-|
D|--2-x-x-2-x-x-2-0-2-x-x-2-x-2-5-|

Verse 1

e|-----------------------------------------------------------------|
B|-----------------------------------------------------------------|
G|-----------------------------------------------------------------|	x2
D|--2-x-x-2-x-x-2-0-2-x-x-2-x-x-2-0-2-x-x-2-x-x-2-0-2-x-x-2-x-2-5--|
A|--2-x-x-2-x-x-2-0-2-x-x-2-x-x-2-0-2-x-x-2-x-x-2-0-2-x-x-2-x-2-5--|
D|--2-x-x-2-x-x-2-0-2-x-x-2-x-x-2-0-2-x-x-2-x-x-2-0-2-x-x-2-x-2-5--|

e|------------------|
B|--2-x-x-2-x-x-2---|
G|--2-x-x-2-x-x-2-0-|	x7
D|--2-x-x-2-x-x-2-0-|
D|--0-x-x-0-x-x-0-x-|
D|------------------|

e|---------------------|
B|--2-x-x-2-x-x-2-2----|
G|--2-x-x-2-x-x-2-2-4--|
D|--2-x-x-2-x-x-2-2-4--|
A|--0-x-x-0-x-x-0-0-2--|
D|---------------------|

Chorus

e|--------------------------------------------------------------------|
B|--------------------------------------------------------------------|
G|--2-4----------------------------------2------2------2------2----4--|
D|--2-4-----2------2------2------2------------------------------------|
A|----2-------------------------------0---0--0---0--0---0--0----2-----|
D|-------2---2--2---2--2---2--2---2-----------------------------------|

e|-------------------------------------------------------------------------|
B|-------------------------------------------------------------------------|
G|-------------------------------------2------2------2------2----4---------|
D|--------2------2------2------2-------------------------------------------|
A|----------------------------------0---0--0---0--0---0--0----2------------|
D|-----2---2--2---2--2---2--2---2------------------------------------------|

Verse 2

e|-----------------------------------------------------------------|
B|-----------------------------------------------------------------|
G|-----------------------------------------------------------------|	x2
D|--2-x-x-2-x-x-2-0-2-x-x-2-x-x-2-0-2-x-x-2-x-x-2-0-2-x-x-2-x-2-5--|
A|--2-x-x-2-x-x-2-0-2-x-x-2-x-x-2-0-2-x-x-2-x-x-2-0-2-x-x-2-x-2-5--|
D|--2-x-x-2-x-x-2-0-2-x-x-2-x-x-2-0-2-x-x-2-x-x-2-0-2-x-x-2-x-2-5--|


e|------------------|
B|------------------|
G|--2-x-x-2-x-x-2-0-|	x7
D|--2-x-x-2-x-x-2-0-|
D|--0-x-x-0-x-x-0-x-|
D|------------------|

e|---------------------|
B|--2-x-x-2-x-x-2-2----|
G|--2-x-x-2-x-x-2-2-4--|
D|--2-x-x-2-x-x-2-2-4--|
A|--0-x-x-0-x-x-0-0-2--|
D|---------------------|


e|----------------------------------------------------------------------|
B|----------------------------------------------------------------------|
G|--2-4----------------------------------2------2------2------2----4----|
D|--2-4-----2------2------2------2----2---2--2---2--2---2--2----4-------|
A|----2--2---2--2---2--2---2--2---2---0---0--0---0--0---0--0----2-------|
D|-------2---2--2---2--2---2--2---2-------------------------------------|

e|-------------------------------------------------------------------------|
B|-------------------------------------------------------------------------|
G|-------------------------------------2------2------2------2----4---------|
D|--------2------2------2------2----2---2--2---2--2---2--2----4------------|
A|--------2------2------2------2----0---0--0---0--0---0--0----2------------|
D|-----2---2--2---2--2---2--2---2------------------------------------------|

Bridge (2:05)
[ Tab from: http://www.guitaretab.com/t/the-ting-tings/107922.html ]
e|------------------|
B|------------------|
G|------------------|	x4
D|--2-x-x-2-x-x-2-0-|
A|--2-x-x-2-x-x-2-0-|
D|--2-x-x-2-x-x-2-0-|

e|------------------|
B|------------------|
G|--2-x-x-2-x-x-2-0-|	x3
D|--2-x-x-2-x-x-2-0-|
A|--0-x-x-0-x-x-0-x-|
D|------------------|

e|------------------|
B|--2---2-----------|
G|--2---2---4---4---|
D|--2---2---4---4---|
A|--0---0---2---2---|
D|------------------|

e|------------------|
B|------------------|
G|------------------|	x4
D|--2-x-x-2-x-x-2-0-|
A|--2-x-x-2-x-x-2-0-|
D|--2-x-x-2-x-x-2-0-|

e|------------------|
B|------------------|
G|--2-x-x-2-x-x-2-0-|	x3
D|--2-x-x-2-x-x-2-0-|
A|--0-x-x-0-x-x-0-x-|
D|------------------|

e|------------------|
B|--2---2-----------|
G|--2---2---4---4---|
D|--2---2---4---4---|
A|--0---0---2---2---|
D|------------------|

Chorus 2 (2:33)

Are.....      Darling.......
e|---|        |---|        |----------------------|
B|---|        |-2-|        |-2--------------------|
G|---|(Strum) |-2-|(Strum) |-2--4-----------------|
D|-2-|        |-2-|        |-2--4-----------------|
A|-2-|        |-0-|        |-0--2-----------------|
D|-2-|        |---|        |----------------------|

Are.....      Bird(?).....
e|---|        |---|        |----------------------|
B|---|        |-2-|        |-2--------------------|
G|---|(Strum) |-2-|(Strum) |-2--4-----------------|
D|-2-|        |-2-|        |-2--4-----------------|
A|-2-|        |-0-|        |-0--2-----------------|
D|-2-|        |---|        |----------------------|


Are.....	Darling.......
e|---|        |---|        |----------------------|
B|---|        |-2-|        |-2--------------------|
G|---|(Strum) |-2-|(Strum) |-2--4-----------------|
D|-2-|        |-2-|        |-2--4-----------------|
A|-2-|        |-0-|        |-0--2-----------------|
D|-2-|        |---|        |----------------------|

Are.....	Bird(?).....
e|---|        |---|        |----------------------|
B|---|        |-2-|        |-2--------------------|
G|---|(Strum) |-2-|(Strum)  |-2--4----------------|
D|-2-|        |-2-|        |-2--4-----------------|
A|-2-|        |-0-|        |-0--2-----------------|
D|-2-|        |---|        |----------------------|


Are.....	Darling.......
e|---|        |---|        |----------------------|
B|---|        |-2-|        |-2--------------------|
G|---|(Strum) |-2-|(Strum) |-2--4-----------------|
D|-2-|        |-2-|        |-2--4-----------------|
A|-2-|        |-0-|        |-0--2-----------------|
D|-2-|        |---|        |----------------------|

Are.....	Bird(?).....
e|---|        |---|        |----------------------|
B|---|        |-2-|        |-2--------------------|
G|---|(Strum) |-2-|(Strum) |-2--4-----------------|
D|-2-|        |-2-|        |-2--4-----------------|
A|-2-|        |-0-|        |-0--2-----------------|
D|-2-|        |---|        |----------------------|


Are.....	Darling.......
e|-0-|        |-5-|        |-5--7-----------------|
B|-0-|        |-5-|        |-5--7-----------------|
G|-9-|(Strum) |-6-|(Strum) |-6--8-----------------|
D|-9-|        |-7-|        |-7--9-----------------|
A|-7-|        |-7-|        |-7--9-----------------|
D|-x-|        |-x-|        |-x--x-----------------|

Are.....	Bird(?).....
e|-0-|        |-5-|        |-5--7-----------------|
B|-0-|        |-5-|        |-5--7-----------------|
G|-9-|(Strum) |-6-|(Strum) |-6--8-----------------|
D|-9-|        |-7-|        |-7--9-----------------|
A|-7-|        |-7-|        |-7--9-----------------|
D|-x-|        |-x-|        |-x--x-----------------|

This chord pattern continues almost until the end of the song, untill;

Outro (4:46)

/ / // / /    / / // / /  / / // / /   / / // / /  /
e|-0-|        |-7-|       |-5-|        |-5-|       |-0----------------|
B|-0-|        |-0-|       |-5-|        |-5-|       |-0----------------|
G|-9-|(Strum  |-7-|       |-6-|(Strum  |-5-|       |-1----------------|
D|-9-|lightly)|-6-|       |-7-|lightly)|-7-|       |-2----------------|
A|-7-|        |-7-|       |-7-|        |-7-|       |-2----------------|
D|-x-|        |-x-|       |-x-|        |-x-|       |-x----------------|

===============================================================================
Related for Thats Not My Name tab